Kinks - You Really Got Me Chords & Tabs

 

You Really Got Me Chords & Tabs

Kinks Chords & Tabs

Version: 1 Type: Tab 0 ratings
1 star 2 stars 3 stars 4 stars 5 stars
comments

You Really Got Me Tab

   
kinks
you really got me

intro
(riff 1)
 F5 G5 F5 G5
------------|
------------|
------------|
-3--5-5-3-5-|
-3--5-5-3-5-|
-1--3-3-1-3-|

verses
(w/riff 1)
(1)girl you really got me going          you got me so i dont know what im doing
(2,3)see dont ever set me free           i always wanna be your side

yeah you really got knowing              you got me so i cant sleep at night
yeah you really got knowing              you got me so i cant sleep at night

(riff 2)
 G5 A5 G5 A5
------------|
------------|
------------|
-5--7-7-5-7-|
-5--7-7-5-7-|
-3--5-5-3-5-|

(w/riff 2)
yeah you really got me now  you got me so I dont know what im doing now

(riff 3
 C5  D5    C5 D5
-----------------|
-----------------|
-----------------|
-10--12-12-10-12-|
-10--12-12-10-12-|
-8---10-10-8--10-|

(w/riff 3)
oh yeah you really got me now you got me so I cant sleep at night

chorus
                                                         C5
you really got me you really got me you really got me

solo
[ Tab from: http://www.guitartabs.cc/tabs/k/kinks/you_really_got_me_tab.html ]
-------------------------------------------------------------------------------------------|
-------------------3-----------------------------------------------------------------------|
-5b-5b-5b-5b-5b-5b---5b6-6r5p3p0--3-0-3-0-3-0-3-0-3-0-3-5b6-6r5p3p0--3-0-3-0-3-5b6-6r5p3p0-|
-------------------------------------------------------------------------------------------|
-------------------------------------------------------------------------------------------|
-------------------------------------------------------------------------------------------|


-6p3------------------------------------------6p3---------------------------------------------------------|
-----3--------------------------------------------3-------------------------------------------------------|
-------5b6-6r5p3p0--3-0-3-0-3-5b6-5b6-6r5p3p0-------5b6-6r5p3p0--3-0-3-0-3--5b6-5b6-5b6-5b6-5b6--5b6--5b6-|
----------------------------------------------------------------------------------------------------------|
----------------------------------------------------------------------------------------------------------|
----------------------------------------------------------------------------------------------------------|

ending
D     D7

http://www.geocities.com/abc_tabs/
Comments