Kinks - You Really Got Me Intro Solo Chords & Tabs

 

You Really Got Me Intro Solo Chords & Tabs

Kinks Chords & Tabs

Version: 1 Type: Chords 0 ratings
1 star 2 stars 3 stars 4 stars 5 stars
comments

You Really Got Me Intro Solo Chords

   
#----------------------------------PLEASE NOTE---------------------------------#
#This file is the author's own work and represents their interpretation of the #
#song. You may only use this file for private study, scholarship, or research. #
#------------------------------------------------------------------------------#
The kinks
you really got me

intro
(riff 1)
 F5 G5 F5 G5  
------------
------------
------------
-3--5-5-3-5-
-3--5-5-3-5-
-1--3-3-1-3-

verses
(w/riff 1)

(riff 2)
 G5 A5 G5 A5  
------------
------------
------------
-5--7-7-5-7-
-5--7-7-5-7-
-3--5-5-3-5-

(w/riff 2)

(riff 3
 C5  D5    C5 D5  
-----------------
-----------------
-----------------
-10--12-12-10-12-
-10--12-12-10-12-
-8---10-10-8--10-

(w/riff 3) 

solo
[ Tab from: http://www.guitartabs.cc/tabs/k/kinks/you_really_got_me_intro_solo_crd.html ]
-------------------------------------------------------------------------------------------
-------------------3-----------------------------------------------------------------------
-5b-5b-5b-5b-5b-5b---5b6-6r5p3p0--3-0-3-0-3-0-3-0-3-0-3-5b6-6r5p3p0--3-0-3-0-3-5b6-6r5p3p0-
-------------------------------------------------------------------------------------------
-------------------------------------------------------------------------------------------
-------------------------------------------------------------------------------------------


-6p3------------------------------------------6p3---------------------------------------------------------
-----3--------------------------------------------3-------------------------------------------------------
-------5b6-6r5p3p0--3-0-3-0-3-5b6-5b6-6r5p3p0-------5b6-6r5p3p0--3-0-3-0-3--5b6-5b6-5b6-5b6-5b6--5b6--5b6-
----------------------------------------------------------------------------------------------------------
----------------------------------------------------------------------------------------------------------
----------------------------------------------------------------------------------------------------------

ending
D     D7 

http://www.geocities.com/abc_tabs/   
Comments