Kinks - Wild Thing Chords & Tabs

 

Wild Thing Chords & Tabs

Kinks Chords & Tabs

Version: 1 Type: Tab

Wild Thing Tab

   
-------------------------------------------------------------------------------
			     WILD THING Ė The Kinks
-------------------------------------------------------------------------------

Tabbed by: St.Timmy
Email: saint_timmy@hotmail.com

Tuning: Standard E A D G B E

Right I havenít tabbed the Solo but thatís the only thing I missed I think. This
song is really easy  great for beginners and fun to play.

Intro
e|-----------------|-----------------|-----------------|-----------------|
B|-----------------|-----------------|-----------------|-----------------|
G|-----------------|-------XXXX-7--7-|-XX-9--9--9--9---|-9--9------------|
D|-7^--------------|-7--7--XXXX-7--7-|-XX-9--9--9--9---|-9--9------------|
A|-----------------|-7--7--XXXX-5--5-|-XX-7--7--7--7---|-7--7------------|
E|-----------------|-5--5--XXXX------|-XX--------------|-----------------|
*Pre bend then slowly release

Chorus 
      Wild Thing               You make my heart sing               You make
e|-----------------|-----------------|-----------------|-----------------|
B|-----------------|-----------------|-----------------|-----------------|
G|-------XXXX-7--7-|-XX-9--9-XX-7--7-|-------XXXX-7--7-|-XX-9--9-XX-5--5-|
D|-7--7--XXXX-7--7-|-XX-9--9-XX-7--7-|-7--7--XXXX-7--7-|-XX-9--9-XX-5--5-|
A|-7--7--XXXX-5--5-|-XX-7--7-XX-5--5-|-7--7--XXXX-5--5-|-XX-7--7-XX-7--7-|
E|-5--5--XXXX------|-XX------XX------|-5--5--XXXX------|-XX------XX------|
[ Tab from: http://www.guitartabs.cc/tabs/k/kinks/wild_thing_tab.html ]
Everything    Groovy                  Wild Thing 
e|-----------------|-----------------|- ---------------|-----------------|
B|-----------------|-----------------|-----------------|-----------------|
G|-------XXXX-7--7-|-XX-9--9-XX-7--7-|-------XXXX-7--7-|-XX-9--9--9--9---|
D|-7--7--XXXX-7--7-|-XX-9--9-XX-7--7-|-7--7--XXXX-7--7-|-XX-9--9--9--9---|
A|-7--7--XXXX-5--5-|-XX-7--7-XX-5--5-|-7--7--XXXX-5--5-|-XX-7--7--7--7---|
E|-5--5--XXXX------|-XX------XX------|-5--5--XXXX------|-XX--------------|


Verse
           wild thing I think I love ya           but I wanna know for sure
e|-----------------|-----------------|-----------------|-----------------|
B|-----------------|-----------------|-----------------|-----------------|
G|-----------------|-----------------|-----------------|-----------------|
D|-5--7--5--7------|-----------------|-5--7--5--7------|-----------------|
A|-5--7--5--7------|-----------------|-5--7--5--7------|-----------------|
E|-3--5--3--5------|-----------------|-3--5--3--5------|-----------------|
            Come on and hold me tight             I love you
e|-----------------|-----------------|-----------------|-----------------|
B|-----------------|-----------------|-----------------|-----------------|
G|-----------------|-----------------|-----------------|-----------------|
D|-5--7--5--7------|-----------------|-5--7--5--7------|-----------------|
A|-5--7--5--7------|-----------------|-5--7--5--7------|-----------------|
E|-3--5--3--5------|-----------------|-3--5--3--5------|-----------------|

Its pretty much that repeated over.



Order:
Intro
Chorus
Verse
Chorus
Solo
Verse
Chorus X2