Kinks - Waterloo Sunset Chords & Tabs

 

Waterloo Sunset Chords & Tabs

Kinks Chords & Tabs

Version: 2 Type: Tab 0 ratings
1 star 2 stars 3 stars 4 stars 5 stars
comments

Waterloo Sunset Tab

   
-----------------------------------------------------------------
Waterloo Sunset Intro - The Kinks
-----------------------------------------------------------------
Tabbed by: Joel Buxton
Email:joel_1119@hotmail.com

Tuning:Standard

This is my first tab but as most of the intros for waterloo sunset are wrong i thought
it would be nice if the actual intro was uploaded, so here you are. You may find it easier to listen to
the song first or whilst reading this so u get how it goes :)
[ Tab from: http://www.guitartabs.cc/tabs/k/kinks/waterloo_sunset_tab_ver_2.html ]
e|---------------------------------------------------------------|
B|---------------------------------------------------------------|
G|---------9-----------------------------------------------------|
D|--9h11-9---9h11-9--------------9-------------------------------|
A|----------------------9-9h11-9-----9h11-9-----------11-9-7-----|
E|-------------------------------------------7-7h9-7---------9---|

| / slide up
| \ slide down
| h hammer-on
| p pull-off
| ~ vibrato
| + harmonic
| x Mute note
Comments