Kinks - Victoria Chords & Tabs

 

Victoria Chords & Tabs

Kinks Chords & Tabs

Version: 3 Type: Tab 0 ratings
1 star 2 stars 3 stars 4 stars 5 stars
comments

Victoria Tab

   
-------|
-------|
-------|                     This is the intro of Victoria
-----5-|
-5-7---|
-------|
[ Tab from: http://www.guitartabs.cc/tabs/k/kinks/victoria_tab_ver_3.html ]
     D       G        C           G        D       G
-----------------------------------------------------|
-----------------------------------------------------|
----------------------0------------------------------|
-----0------------0-2---------0-2-0--------0---------|
-0-2-----2-0---------------------------0-2-----0-2---|
-------------3-------------------------------------3-|

     D       G         C          G        D       G
-----------------------------------------------------|
-----------------------------------------------------|
-----7-----------------12------------------7---------|
-7-9-----9-7-5---12-14------12-14-12---7-9-----9-7-5-|
-----------------------------------------------------|
-----------------------------------------------------|
Comments