Kinks - Plastic Man Chords & Tabs

 

Plastic Man Chords & Tabs

Kinks Chords & Tabs

Version: 1 Type: Tab 0 ratings
1 star 2 stars 3 stars 4 stars 5 stars
comments

Plastic Man Tab

   
#----------------------------------PLEASE NOTE---------------------------------#
#This file is the author's own work and represents their interpretation of the #
#song. You may only use this file for private study, scholarship, or research. #
#------------------------------------------------------------------------------#

Plastic Man 
Written by: R. D. Davies
[ Tab from: http://www.guitartabs.cc/tabs/k/kinks/plastic_man_tab.html ]
intro
(riff 1)    (riff 2)         (riff 3) (riff 4)          (riff 5)
D(4x)       D7               D         D                A               
---------- ---------------- --------- ---------------- ---------
--------3- -3-------------- -7h8p7-7- -7-7--8--10-8-7- ---------
---------- ----4p2p0------- -7-----7- -7-7--9--11-9-7- -------2-
-2h3h4---- ----------4p2p0- -7-----7- -7-7--7--10-7-7- ---------
---------- ---------------- --------- ---------------- -2h3h4--- 
---------- ---------------- --------- ---------------- ---------

-------
-------
-------
-------
-0-2-4-
-------


solo
 A            A/G#    A/G       D(1x                       D(2x
------------------------------ --------------------------- --------------------------
------------------------------ --------------------------- --------------------------
------------------------------ ---9b11-9b11r9p7---7------- ---9b11r9p7---7-------7h9-
------------------------------ -0---------------9---9p7-9- -0----------9---9-7h9-----
------------------------------ --------------------------- --------------------------
-5--5--5--5---4-4-4-4-3-3-3-3- --------------------------- --------------------------



Comments