Kinks - Picture Book Chords & Tabs

 

Picture Book Chords & Tabs

Kinks Chords & Tabs

Version: 1 Type: Tab 0 ratings
1 star 2 stars 3 stars 4 stars 5 stars
comments

Picture Book Tab

   
This is the beginning part to Picture Book. Its played mostly thru the whole song.
[ Tab from: http://www.guitartabs.cc/tabs/k/kinks/picture_book_tab.html ]
Guitar 1
---------------------------------------------------------------------------------------------------------------------
---------------------------------------------------------------------------------------------------------------------
---------------------------------------------------------------------------------------------------------------------
-------------------------------------------------2---4---5---5-----4----3--------------------------------------------
---------------------------------2--4---5--5-------------------------------------------------------------------------
----/---0---0---2---4---5--5-----------------------------------------------------------------------------------------
slide


Guitar 2
 E        A       D      G
-0--------0-------2------3---
-0--------2-------3------3---
-1--------2-------2------0---
-2--------2-------0------0---
-2--------0-------0------2---
-0--------0-------0------3---



Sorry I  dont have the rest of the song. But enjoy anyway.


Comments