Kinks - I Need You Chords & Tabs

 

I Need You Chords & Tabs

Kinks Chords & Tabs

Version: 1 Type: Tab 0 ratings
1 star 2 stars 3 stars 4 stars 5 stars
comments

I Need You Tab

This is the riff to I Need You by The Kinks
[ Tab from: http://www.guitartabs.cc/tabs/k/kinks/i_need_you_tab.html ]
Riff # 1
--------------------------------------------------------------|
--------------------------------------------------------------|
--------------------------------------------------------------|
---9-9-7-9---7-9-9-7-9----------------------------------------|
---9-9-7-9---7-9-9-7-9----------------------------------------|
---7-7-5-7---5-7-7-5-7----------------------------------------|


Riff # 2
--------------------------------------------------------------|
--------------------------------------------------------------|
---9-9-7-9---7-9-9-7-9----------------------------------------|
---9-9-7-9---7-9-9-7-9----------------------------------------|
---7-7-5-7---5-7-7-5-7----------------------------------------|
--------------------------------------------------------------|


by Bonar
Comments