Kinks - I Am Free Solo Chords & Tabs

 

I Am Free Solo Chords & Tabs

Kinks Chords & Tabs

Version: 1 Type: Tab 0 ratings
1 star 2 stars 3 stars 4 stars 5 stars
comments

I Am Free Solo Tab

   
#----------------------------------PLEASE NOTE---------------------------------#
#This file is the author's own work and represents their interpretation of the #
#song. You may only use this file for private study, scholarship, or research. #
#------------------------------------------------------------------------------#
Artist: The Kinks
Song: I Am Free
Tabbed by: JOhn Leadman


Here's the solo for I Am Free:

e|-----------------------------------------|
B|-----------------------------------------|
G|---------7--7--9--7--7--------------7----|
D|-----7s9-------------9b--5s7h10--10--10--|
A|-----------------------------------------|
E|-----------------------------------------|

[ Tab from: http://www.guitartabs.cc/tabs/k/kinks/i_am_free_solo_tab.html ]
Then play   C   F   C   G7   C   F   C

Then

e|------------------------------------------------------------------------|
B|------------------------------------------------------------------------|
G|---------7--7--9--7--7--------------------------------------------------|
D|-----7s9-------------9b--5s7h10--10--10--10--10--10s12--10---9---7---5--|
A|------------------------------------------------------------------------|
E|------------------------------------------------------------------------|

Which goes into   C   F   C   G7   C   F   C again while Dave sings "I am 
free . . ."
Comments