Kinks - Apeman Riff Chords & Tabs

 

Apeman Riff Chords & Tabs

Kinks Chords & Tabs

Version: 1 Type: Tab 0 ratings
1 star 2 stars 3 stars 4 stars 5 stars
comments

Apeman Riff Tab

   
#----------------------------------PLEASE NOTE---------------------------------#
#This file is the author's own work and represents their interpretation of the #
#song. You may only use this file for private study, scholarship, or research. #
#------------------------------------------------------------------------------#

apeman
horns/traffic noise
[ Tab from: http://www.guitartabs.cc/tabs/k/kinks/apeman_riff_tab.html ]
intro
 D                A   D E      A 
---------------------------------
-7-7--7-7-7--7-7--5-9-7----------
-7-7--7-7-7--7-7--6-9-7--7-7-7-6-
-------------------------9-9-9-9-
---------------------------------
---------------------------------

riff 1                 riff 2                riff 3             
-------------------   --------------------  ------------------ 
-------------------   --------------------  ------------------ 
-----------0-1-----   --------------------  ------------------ 
---0-1-2-4---------   --------------------  --------2-4-2----- 
-4-----------------   --------2-4-2-------  -0--0s4-------0--- 
-------------------   -0--0s4-------0-----  ------------------

riff 4
---------------------------- 
---------------------------- 
------9-----7-----5-----4--- 
---------------------------- 
-9h11---7h9---5h7---4h5---5- 
----------------------------  
Comments