Kinks - All The Day And All Of The Night Chords & Tabs

 

All The Day And All Of The Night Chords & Tabs

Kinks Chords & Tabs

Version: 1 Type: Bass Tab

All The Day And All Of The Night Bass Tab

Main Riff
G -------------------------------------|
D -------------------------------------|   x4
A ----------------3-3-3-3--------------|
E ---3--5--5--3--3--------5------------|

Chorus

G [--------------]----------------------------|
D [*------------*]----------------------------|
A [*------------*]---------------3-3-3-3------|   x1
E [--3--5--5--3--]-3--5--5--3--3---------5----|
[ Tab from: http://www.guitartabs.cc/tabs/k/kinks/all_the_day_and_all_of_the_night_btab.html ]
G -------------------------------------|
D -------------------------------------|
A ----------------3-3-3-3--------------|   x4
E ---3--5--5--3--3--------5------------|

Then go back to the start.

Play this when the instruments go quite just before the solo
G -----------------------------------|
D -----------------------------------|
A ----------------3------------------|
E  ---3--5--5--3---------------------|

for the solo just play the main riff.
After the solo go back to the main riff and chorus.

End with this...
G -------------------------|
D -------------------------|
A ---------3---------------|
E ---5--3-----5------------|