Kinks - All Day And All Of The Night Chords & Tabs

 

All Day And All Of The Night Chords & Tabs

Kinks Chords & Tabs

Version: 3 Type: Tab 0 ratings
1 star 2 stars 3 stars 4 stars 5 stars
comments

All Day And All Of The Night Tab

this is my first ever tab so i hope ive got it right. havebnt worked out the solo
 yet as it's past me but here is my tab. enjoy ;)

VERSE:(strumming is easy enough 2 work out for urself)

e----------------------
F----------------------
D----------3----------- X6
B--5---3---3-----------
A--5---3---1-----------
E--3---1---------------

Pre chourus:
[ Tab from: http://www.guitartabs.cc/tabs/k/kinks/all_day_and_all_of_the_night_tab_ver_3.html ]
e----------------------
F----------------------
D--3-------------------
B--3x8---3----7--------X1
A--1-----3x8--7x16-----
E--------1----5--------

chorus: (Basically same strumming as verse)

e----------------------
F--------5-------------
D--7--5--5--5----------
B--7--5--3--5----------X4
A--5--3-----3----------
E----------------------

verse again
solo (sorry dont have it)
another verse
pre chorus
chorus

And thats it hope you find it usefull. :D
Comments