Kingston Wall - Shine On Me Chords & Tabs

 

Shine On Me Chords & Tabs

Kingston Wall Chords & Tabs

Version: 1 Type: Bass Tab 0 ratings
1 star 2 stars 3 stars 4 stars 5 stars
comments

Shine On Me Bass Tab

   
Kingston Wall was a psychadelic trio rock band from Finland. They were around in the 
90's and released three or more (I'm not sure) albums. Those weren't however released 
Finland I believe. Which is a shame because I think they're really good.
This song is from their second album, the bass is played by Jukka Jylli, great bass work throughout
the whole album.

Artist: Kingston Wall
Song: Shine on Me
Album: II
Transcribed by Nathan Åkerlund (natman@tjohoo.se).
Tuning is EADG, timing is not really respected, more like a hint.
Some small fills are left out as they don't matter as much and differ from time to time.

Correction: Oops, seems my bass wasn't in standard tuning when I tabbed this...
The song should be played 1 1/2 step down in pitch. E.g. start on C# instead of E.

Intro
-----------------------------------------------------------------|
--------------------------7-9----7-------------------------------|
-7-----------5-7----7--10-----------10--5-7------7-----------5-7-|
----7--5--3-----------------------------------------7--5--3------|

A
---------------------------------------|
---------------------------------------|
-7--5-7-7--5-7p5-------------------5-7-|
-----------------7--6-7-7--6-5--3------|
[ Tab from: http://www.guitartabs.cc/tabs/k/kingston_wall/shine_on_me_btab.html ]
Bridge
-------------------------------------.) (This part differs throughout the song, sometimes it's
-----------7-5-----------------------.) about twice as long so just do some variations in
-5-7-7-5-7-----7-5-7- this neck area-.)
-------------------------------------.)

B
-------------------4-4---7-4------9------7-----|
-----------------------------8-7----7-5--------|
-5-7-7--5-7p5----5-----5-------------------5-7-|
--------------7--------------------------------|

Structure:
----------
Intro
A
Bridge
B
Bridge
A
Bridge and B are now played lots of times until the end with small variations
and fills here and there which I'm too lazy and not good enough to transcribe :)
At 3:10 and 4:50 a fill is played that goes something like:

-/9-9-9-7-9-9-9-7-9-7-------|
----------------------9-7---|
--------------------------7-|
----------------------------|

At 5:30, the song finish off with:

----12-11-9----------------------------|
-9----------12-9-9-12-11-9-------------|
---------------------------12--10--5-7-|
---------------------------------------|

-----------------------------------------4-4-7-4-------------|
----9--7--5--------------------------------------8-7--5------|
-7-----------5-7----7--5-7-7--5-7p5----5-----------------5-7-|
------------------------------------7------------------------|

Play pattern A, and after that:

--------------------------------------------------------9-|
-----------------------------------------------------9----|
-7--5-7-7--5-7p5-----------------------7--5--4----7-------|
-----------------7--6-7-7--6-5--3-------------------------|

Feel free to contact me if you have any opinions on this transcription.
Comments