Kingsmen - Louie Louie Chords & Tabs

 

Louie Louie Chords & Tabs

Kingsmen Chords & Tabs

Version: 4 Type: Tab 0 ratings
1 star 2 stars 3 stars 4 stars 5 stars
comments

Louie Louie Tab

   
Song: Louie, Louie
By: The Kingsmen
Tabbed by: Toughlikepopeye@hotmail.com

Standard Tuning EADGBE
   A       D      Em      D
|--0-0-0---2-2----0-0-0---2-2----    [ Tab from: http://www.guitartabs.cc/tabs/k/kingsmen/louie_louie_tab_ver_4.html ]
        
|----------------------5----------------------------------
|----------------------5---------------------5-------5----
|-----------5---7---5--7b-----7---5---7-------------------
|7----7-7-------------------------------------------------
|---------------------------------------------------------
|---------------------------------------------------------

      
|5----5-5---5------5-----5--5---5-5---5-5---5---5---5---5-
|---------------------------------------------------------
|---------------------------------------------------------
|---------------------------------------------------------
|---------------------------------------------------------
|---------------------------------------------------------

|-8b-5--------5----5--------------------------------------
|------8-5----5----5-----------------5--------------------
|----------7b---7b---7---5-----5--7b---7b--7-5-7-5--------
|---------------------------7-----------------------7-5---
|---------------------------------------------------------
|---------------------------------------------------------

|-----------------------5---------------------------------
|-----------------------5---------------------------------
|-----------5---7---5---7b-----7---5---7---5--------------
|7----7-7---------------------------------------7-----5---
|---------------------------------------------------------
|---------------------------------------------------------

       
|---------------------------------------------------------
|---------------------7---7-------------------------------
|---------------------7---7-------------------------------
|-7---7---7-----------7---7-------------------------------
|---------------------------------------------------------
|---------------------------------------------------------
Comments