Kingsmen - Louie Louie Chords & Tabs

 

Louie Louie Chords & Tabs

Kingsmen Chords & Tabs

Version: 3 Type: Bass Tab 0 ratings
1 star 2 stars 3 stars 4 stars 5 stars
comments

Louie Louie Bass Tab

------------------------------------------------------------
	     Louie Louie- Kingsmen
------------------------------------------------------------


G|-------------------------------|
D|-------------------------------|           
A|------1-1-1--3-3-3--1-1-1------|
E|1-1-1---------------------3-3-3|

thats repeated a bunch of times, if you know the song, you'll know when to come in on 
the next part
[ Tab from: http://www.guitartabs.cc/tabs/k/kingsmen/louie_louie_btab_ver_3.html ]
G|------------------------------------|
D|------------------------------------|
A|-----1-1--3-3-3-3------1-1--3-3-3---|
E|1-1----------------1-1--------------|
 
thats repeated a few times, 4 or 5 times i think. 

G|-------------------------------|
D|-------------------------------|           
A|------1-1-1--3-3-3--1-1-1------|
E|1-1-1---------------------3-3-3|

and play that until the rest of the song is over.
Comments