Kingsmen - Louie Louie Chords & Tabs

 

Louie Louie Chords & Tabs

Kingsmen Chords & Tabs

Version: 1 Type: Bass Tab 0 ratings
1 star 2 stars 3 stars 4 stars 5 stars
comments

Louie Louie Bass Tab

Louie, Louie
by:Kingsmen
Corrected by:Corbin Scharnhorst



Intro
G-5/7-* ------55--777--55
D-3/5-* -555-------------
A-----* ------33--555--33
E-----* -333-------------repeat this twice
(the second time leave out the first little part)

Chorus
[ Tab from: http://www.guitartabs.cc/tabs/k/kingsmen/louie_louie_btab.html ]
G-----------------
D------11--333--11
A-111-------------
E-----------------  2X


Verse

G--------------------------
D-------1---1-3---3-1---1--
E-1---1-------------------1
A--------------------------


Song Structure
Intro
Chorus
Verse
Chorus
Verse
Chorus

First tab by Robert Pasley. Corrected by Corbin Scharnhorst.

Comments