Kingsize - Disease Chords & Tabs

 

Disease Chords & Tabs

Kingsize Chords & Tabs

Version: 1 Type: Bass Tab 0 ratings
1 star 2 stars 3 stars 4 stars 5 stars
comments

Disease Bass Tab

Disease
by KingSize

tabbed by Kurt Reichardt

Dropped D tuning

Part 1
G:----------------------------------|
D:----------------------------------|
A:--5-----7-----7-7^8---8-7----7\5--|
D:-----0-----0--------0------0------|

Part 1B
G:----------------------------------|
D:----------------------------------|
A:--5-----7-----7-7^8---8/10-10-10--|
D:-----0-----0--------0-------------|

Part 2					first 3	last time
G:--------------------------------|-----------|------------------|
D:--------------------------------|-----------|------------------|
A:--------------------------------|------6-5--|------6-5~--------|
D:--0--0-0-0--3--0-0-0-5--0-0-0-3-|--5-6------|--5-6----------0--|

Part 3			   First 3 times			
G:--------------------|-----------------------|
D:--------------------|-----------------------|
A:----------------5---|-----------------------|
D:--1-1-0-------0-----|--3-3--3-3-3/6-6-6--6--|
[ Tab from: http://www.guitartabs.cc/tabs/k/kingsize/disease_btab.html ]
Last Time
G:---------------------------|
D:---------------------------|
A:---------------------------|
D:--3------3-3/6-6------1-1--|

Part 4
G:----------------------------------|
D:----------------------------------|
A:----------3/5--5^6----------------|
D:--0-0-0-0-----------0-0-6--0-5-3--|

Part 5
G:-----------------------------------|
D:-----------------------------------|
A:------------------6--6--6-6-6-6-6--|
D:--0--0--0-0-0-0-0------------------|

Part 6                          
G:-------------------------|---------------------|
D:-------------------------|---------------------|
A:-------------------------|---------------------|
D:--0--2-1--0--4-3--0--6-5-|-0-0-0-0-0-0-0-0-0-0-|

Part 7
G:------------------------------|
D:------------------------------|
A:------------------------------|
D:--0---------------0-0-0--0-0--|


ORDER:

Part 1 (bass intro x4)
Pause (8 beats)
Part 1 (x3)
Part 1B (x1)
Part 2 (x4)
Part 3 (x4)
Part 4 (x4)
Part 5 (x2)
Part 2 (x4)
Part 3 (x4)
Part 4 (x4)
Part 5 (x2)
Part 6 (x4)
Part 7 (x1)

Comments