Kingsize - Another Dream Chords & Tabs

 

Another Dream Chords & Tabs

Kingsize Chords & Tabs

Version: 1 Type: Bass Tab 0 ratings
1 star 2 stars 3 stars 4 stars 5 stars
comments

Another Dream Bass Tab

"Another Dream"
by KingSize

tabbed by Kurt Reichardt

Dropped D Tuning

Part 1
G:----------------------------|
D:----------------------------|
A:-----------------------6~---|
D:--0-0-0-0-0--0-0-0-0-0------|

Part 2
G:------------------|-----------------|
D:------------------|-----------------|
A:------------------|-----------------|
D:--0-0-0-0-0-0-0-0-|-0-0-0-0-0-0-0-0-|

Part 3                      last time
G:-------------------------|------|
D:-------------------------|------|
A:-------------------------|--/6--|
D:--0-0-2^3--0-0-2^3-0-1^2-|------|

Part 4
G:---------------------------------|
D:---------------------------------|
A:----------------3/5-5-5-3/6-6-6--|
D:--0-0-0--0-0-0-------------------|
[ Tab from: http://www.guitartabs.cc/tabs/k/kingsize/another_dream_btab.html ]
Part 5A
G:------------------------------------|
D:------------------------------------|
A:------------------------------------|
D:--0-2-3-0-3-2-0-1-2-0-0--3---2---1--|

Part 5B
G:------------------------------------|
D:------------------------------------|
A:------------------------------------|
D:--0-2-3-0-3-2-0-1-2-0-0--3---5---6--|

Part 6
G:---------------------------|------------------------------|
D:---------------------------|------------------------------|
A:----5----5------3----/6-6--|----5----5------3-------------|
D:--0----0----0-0----0-------|--0----0----0-0---0^5--6-5-3--|

Part 7
G:-----------|--------------|----------------|
D:-----------|--------------|----------------|
A:-----------|--------------|----------------|
D:--0-0-0-0--|--R--R--R--R--|--0--0--0--12\--|


ORDER:

Guitar Intro (Part 1-x2)
Part 1  (x4)
Part 2  (x4)
Part 3  (x4)
Part 1  (x4)
Part 2  (x4)
Part 3  (x4)
Part 4  (First Half x2)
Part 4  (x8)
Part 5A (x1)
Part 5B (x1)
Part 5A (x1)
Part 5B (x1)
Part 2  (x4)
Part 6  (x4)
Part 7  (x1)
Part 4  (x4)

Comments