Kings X - Summerland Chords & Tabs

 

Summerland Chords & Tabs

Kings X Chords & Tabs

Version: 1 Type: Tab 0 ratings
1 star 2 stars 3 stars 4 stars 5 stars
comments

Summerland Tab

#----------------------------------PLEASE NOTE---------------------------------#
#This file is the author's own work and represents their interpretation of the #
#song. You may only use this file for private study, scholarship, or research. #
#------------------------------------------------------------------------------#
 tmarazap@rupikonna.spt.fi
 Tabbed by Timo Marttinen  (P.I.T pori institute of technology)

KING`S X 
       SUMMERLAND            
    from the album gretchen goes to nebraska
guitar performed by Ty Tabor

   Intro and the main riff :
E-------------------------------------------------------------------------
H-------------------------------------------------------------------------
G------0-----2-----0-------2-----0------0-----2-----0-------0-------------
D----------0-----0-------2-----4------------0-----0-------2---------------
A----2-----------------4-----0--------2-----------------4-----------------
E--0-----2-----3-----5--------------0-----2-----3-----5-------------------

chorus

------------------------------------------------------------
------------------------------------------------------------
------0-----0-----0-----0-0----------0-----0------0---0---0-
----2-----4-----5-----7------------2-----0------2-------4---
--3-----5-----7-----9-------5--0------2------3-----3--------
------------------------------------------------------------

-----------------------------------------------------------
-----------------------------------------------------------
------0-----0----0-----0-0----------0------0-----0---0---0-
----2-----4----5-----7------------2------0-----2-------4---
--3-----5----7-----9-------5--0-------2------3-----3-------
-----------------------------------------------------------

----------------------------------
----------------------------------
--------0------------0---0--------
------4---5-4------4---4---4------
-3--5---------5--5-----------5----
----------------------------------  
  
solo goes like this or at least i think so
   whammy
 delay      bar
------------------------------------------------------------------------
-12--------15--12--b17~~~~~~~b17b17b17--15--17--------------b15--b15----
----------------------------------------------14~~~~~12--12-------------
------------------------------------------------------------------------
------------------------------------------------------------------------
------------------------------------------------------------------------

[ Tab from: http://www.guitartabs.cc/tabs/k/kings_x/summerland_tab.html ]
bar
-12--14--12----12----------------------------17~~~~~~15s-12------------
------------15-----12~~15-----------------------------------15----------
--------------------------12~~14-------------------------------b14------
---------------------------------12~~14---------------------------------
----------------------------------------12------------------------------
------------------------------------------------------------------------


------------------------------------------------b20~~~~15~----15-17-b17-
-----------------------------------------------------------17-----------
-rb14-12-11-------------------------12----------------------------------
------------14-12----------------12----14~~~----------------------------
------------------14-12-10~~~s14----------------------------------------
------------------------------------------------------------------------

  ring                             harmonic
   bar
-15---------------------------------0---0-----0-------------------------
----17~~-15-13-12h13p12-------------------------------------------------
------------------------14s-12s-11s---9s---7s--9s11s9s7-b9-b9-12--------
------------------------------------------------------------------(12)--
------------------------------------------------------------------------
------------------------------------------------------------------------

  
  
-------------------0------------------------------
--------------3------3----------------------------
--------------0---------------0-------5---7-------
----------------------------5---5-----5---7-------
-------------------------3------------3---5-------
--0-----------------------------------------------

 
--------------------------------------------------
--------------3----3-3-1-0-----3-----3------------
--------------0----------------0-----0------------
----------------------------------------4---------
----------------------------3------3----2---------
-0------------------------------------------------

you have to listen carefully to get the rhythm part
notes are theese. 

--------------------------------------------------------------------------
----------------------------------------------3-3-------------------------
-------2----0-------------------2----0-------2-2-------2----0-------------
-------0----0---2---------------0----0--2--------------0----0---2---------
--2-------------0--0-------2------------0--0-------2------------0----0-----
--0----2----3--------3-2---0----2----3-------------0---2----3----------b2--


-------------------------------------------------------------
-------------------------------------------------------------
-------2----2----2--2--------------2---0---2-----------------
-------0----0----2--2----2---------0---0---2-----------------
-2---------------0--0--3-0----2------------0------0----------
-0-----2----3-----------------0----2---3------------3-2------



----------------------------
----------------------------
------2---2---2--2----------
------0---0---2--2----------
-2------------0--0----0--2--
-0----2---3-----------------
Comments