Kings X - Over My Head Chords & Tabs

 

Over My Head Chords & Tabs

Kings X Chords & Tabs

Version: 2 Type: Tab 0 ratings
1 star 2 stars 3 stars 4 stars 5 stars
comments

Over My Head Tab

#----------------------------------PLEASE NOTE---------------------------------#
#This file is the author's own work and represents their interpretation of the #
#song. You may only use this file for private study, scholarship, or research. #
#------------------------------------------------------------------------------#
#

Date: Wed, 10 Dec 1997 16:16:29 -0500
From: Dan Fisher 
Subject: Re: TAB: "Over My Head" by King's X -Reply -Reply -Reply


OVER MY HEAD -- KING'S X  (1989 - Gretchen Goes To Nebraska)


The following is my best understanding of the song...  improve it if you
are able.  I included the obvious parts but the solos are not included.

Daniel S. Fisher

wetstone@compuserve.com
dfisher@mbakercorp.com

Standard Tuning (EADGBe)
4/4 BPM = 125 (approx.)


[Intro]                    2                        3
|------------------------|------------------------|-------------------------|
|------------------------|------------------------|-------------------------|
|--7======--9======------|--5===--7===--9=========|--7======--9======-------|
|--7======--9======------|--5===--7===--9=========|--7======--9======--2--0-|
|--5======--7======------|--3===--5===--7=========|--5======--7======-------|
|--------0======--0--3--0|------------------------|--------0======--0-------|

4                        5                        6
|------------------------|------------------------|-------------------------|
|--------------4=========|------------------------|-------------------------|
|--------------3=========|--7======--9======------|--5===--7===--9=======---|
|--------------1=========|--7======--9======------|--5===--7===--9=======---|
|--4--0--------3=========|--5======--7======------|--3===--5===--7=======---|
|--------3--0------------|--------0======--0--3--0|-------------------------|

                                             Verse:  Over my head, I hear
                                                     Ayee,   Ayee,   Ayee
                                                     Grandma used to sing
7                        8                        9
|------------------------|------------------------|-------------------------|
|------------------------|--------------4=========|-------------------------|
|--7======--9======------|--------------3=========|--7======--9======-------|
|--7======--9======--2--0|--------------1=========|--7======--9======-------|
|--5======--7======------|--4--0--------3=========|--5======--7======-------|
|--------0======--0------|--------3--0------------|--------0======--0--3--0-|

  hear music in the air,      over my head      I hear music
  hear it so clear          Ayee, Ayee, Ayee hear it so dear
  Grandma used to sing      every night when she was prayin'
10                       11                       12
|------------------------|------------------------|-------------------------|
|------------------------|------------------------|--------------4=======---|
|--5===--7===--9=========|--7======--9======------|--------------3=======---|
|--5===--7===--9=========|--7======--9======--2--0|--------------1=======---|
|--3===--5===--7=========|--5======--7======------|--4--0--------3=======---|
|------------------------|--------0======--0------|--------3--0-------------|

   over my head        its loud and clear,        its going to my head
   I know I know Iknow I'm not crazy              its going to my head
   over my head            over my head             I hear music, Oh Lord
13                       14                       15
|------------------------|------------------------|-------------------------|
|------------------------|------------------------|-------------------------|
|--7======--9======------|--5===--7===--9=========|--7======--9======-------|
|--7======--9======------|--5===--7===--9=========|--7======--9======--2--0-|
|--5======--7======------|--3===--5===--7=========|--5======--7======-------|
|--------0======--0--3--0|------------------------|--------0======--0-------|

     First & Third Chorus:  Music,      music,           I hear music,
16                       17                       18
|------------------------|------------------------|------------------------|
|--------------4=========|--8======---------------|------------------------|
|--------------3=========|--7======---------------|------------------------|
|--------------1=========|--5======---------------|------------------------|
|--4--0--------3=========|--7======---------------|------------------------|
|--------3--0------------|------------------------|------------------------|


 music,             I hear music,      music,          music,      Oh,
19                       20                       21
|------------------------|------------------------|------------------------|
|--6===--7===--8======---|-----------------9======|--8======---------------|
|--5===--6===--7======---|-----------------8======|--7======---------------|
|--3===--4===--5======---|-----------------6======|--5======---------------|
|--5===--6===--7======---|-----------------8======|--7======---------------|
|------------------------|------------------------|------------------------|


   Oh, Oh Lord              music over my head        [repeat third chorus]
22                       23                       24
|------------------------|------------------------|-------------------------|
|------------------------|--6===--7===--8======---|-------------------------|
|------------------------|--5===--6===--7======---|-------------------------|
|------------------------|--3===--4===--5======---|-------------------------|
|------------------------|--5===--6===--7======---|-------------------------|
|------------------------|------------------------|-----------------0--3--0-|
[ Tab from: http://www.guitartabs.cc/tabs/k/kings_x/over_my_head_tab_ver_2.html ]
25                       26                       27
|------------------------|------------------------|-------------------------|
|------------------------|------------------------|-------------------------|
|--7======--9======------|--5===--7===--9=========|--7======--9======-------|
|--7======--9======------|--5===--7===--9=========|--7======--9======--2--0-|
|--5======--7======------|--3===--5===--7=========|--5======--7======-------|
|===-----0======--0--3--0|------------------------|--------0======--0-------|


                         :Repeat bars 9-28 for second verse
            Second Chorus:  Music,      music,        I hear music,
28                       29                       30
|------------------------||------------------------|-------------------------|
|--------------4=========||------------------------|-------------------------|
|--------------3=========||--7======--9======------|--5===--7===--9=======---|
|--------------1=========||--7======--9======------|--5===--7===--9=======---|
|--4--0--------3=========||--5======--7======------|--3===--5===--7=======---|
|--------3--0------------||--------0======--0--3--0|-------------------------|

 music,     Oh,      I hear music,      music,       music,      Oh,
31                       32                       33
|------------------------|------------------------|------------------------|
|------------------------|--------------4=========|--8======---------------|
|--7======--9======------|--------------3=========|--7======---------------|
|--7======--9======--2--0|--------------1=========|--5======---------------|
|--5======--7======------|--4--0--------3=========|--7======---------------|
|--------0======--0------|--------3--0------------|------------------------|


   Oh, Oh Lord              music over my head         she was singing
34                       35                       36
|------------------------|------------------------|-------------------------|
|------------------------|--6===--7===--8======---|-----------------9====---|
|------------------------|--5===--6===--7======---|-----------------8====---|
|------------------------|--3===--4===--5======---|-----------------6====---|
|------------------------|--5===--6===--7======---|-----------------8====---|
|------------------------|------------------------|-------------------------|


   Music,      music,        I hear music,           music,  I hear music
37                       38                       39
|------------------------|------------------------|------------------------|
|--8======---------------|------------------------|--6===--7===--8======---|
|--7======---------------|------------------------|--5===--6===--7======---|
|--5======---------------|------------------------|--3===--4===--5======---|
|--7======---------------|------------------------|--5===--6===--7======---|
|------------------------|------------------------|------------------------|

   music , whoa oho whoa....[SOLOS...]
40
|------------------------|
|------------------------|
|------------------------|
|------------------------|
|------------------------|
|-----------------0--3--0|


[after third chorus repeated]

41                       42                       43
|------------------------|------------------------|-------------------------|
|------------------------|------------------------|-------------------------|
|------------------------|------------------------|-------------------------|
|------------------------|------------------------|-------------------------|
|------------------------|------------------------|--5==================--5-|
|--0==================--0|--3==================--3|-------------------------|


44                       45                       46
|------------------------|------------------------|-------------------------|
|------------------------|------------------------|-------------------------|
|------------------------|------------------------|-------------------------|
|------------------------|------------------------|-------------------------|
|--0==================--0|------------------------|-------------------------|
|------------------------|--0==================--0|--3==================--3-|


47                       48
|------------------------|------------------------|
|------------------------|------------------------|
|------------------------|------------------------|
|------------------------|------------------------|
|--5==================--5|--0==================--0|
|------------------------|------------------------|


[ending]
49
|-------------------------|
|-------------------------|
|--7======--9======-------|
|--7======--9======-------|
|--5======--7======-------|
|--------0======--0--3--0-|

50                       51                       52
|------------------------|------------------------|-------------------------|
|------------------------|------------------------|--------------4=======---|
|--5===--7===--9=========|--7======--9======------|--------------3=======---|
|--5===--7===--9=========|--7======--9======--2--0|--------------1=======---|
|--3===--5===--7=========|--5======--7======------|--4--0--------3=======---|
|------------------------|--------0======--0------|--------3--0-------------|


53                       54                       55
|------------------------|------------------------|-------------------------|
|------------------------|------------------------|-------------------------|
|--7======--9======------|--5===--7===--9=========|--7======--9======-------|
|--7======--9======------|--5===--7===--9=========|--7======--9======--2--0-|
|--5======--7======------|--3===--5===--7=========|--5======--7======-------|
|--------0======--0--3--0|------------------------|--------0======--0-------|


56                       57                       58
|------------------------|------------------------|-------------------------|
|------------------------|--------------------8===|======================---|
|------------------------|--------------------7===|======================---|
|--------------7--5--4--0|--------9--7--------6===|======================---|
|--4--0------------------|--4--0--------9--7--7===|======================---|
|--------3--0------------|------------------------|-------------------------|
Comments