Kings X - Over And Over Chords & Tabs

 

Over And Over Chords & Tabs

Kings X Chords & Tabs

Version: 1 Type: Tab 0 ratings
1 star 2 stars 3 stars 4 stars 5 stars
comments

Over And Over Tab

Artist   : King's X
Song     : Over And Over
Album    : Tape Head
Tabbed By: Jo Lefebure (whipy@hotmail.com)

Tuned 1/2 step down

eb|------------------------0~~------------------------|
bb|-----------3~~--------3------------------------3~~-|
gb|---------0----------2--------------0---0-----0-----|
db|-------0----------0--------------2---------0-------|
ab|-------------------------------2-----3-------------|
eb|-0-2-3----------2------------0-----------3---------|

eb|----------------------------------------|
bb|----------------------------------------|
gb|--7----------------------5-----------7--|
db|--7---------------2------5---------5-7--|
ab|--5---------------2------3---------5-5--|
eb|------------------0----------------3----|
     over and over a-gain   o-ver and o-ver 
eb|-----------------------------|
bb|-----------------------------|
gb|--7---------------------5~~--|
db|--7---------------2-----5~~--|
ab|--5---------------2-----3~~--|
eb|------------------0----------|
     over and over a-gain.........i let you down...

Solo backing:
eb|------------------------------------|
bb|------------------------------------|
gb|----------------2-4-5~~--5-4---2~~--|
db|--2~~--2-4-5~~--2-4-5~~--5-4---2~~--|
ab|--2~~--2-4-5~~--0-2-3~~--3-2---0~~--|
eb|--0~~--0-2-3~~----------------------|

-------------------------^ last time stop here

Solo:
[ Tab from: http://www.guitartabs.cc/tabs/k/kings_x/over_and_over_tab.html ]
eb|--------------------------------------------------|
bb|--------------------------------------------------|
gb|--9~~--7-9-7~~-9---------------------12----11-12--|
db|-----------------9/7--5-7-5~~--/9-10----12--------|
ab|--------------------------------------------------|
eb|--------------------------------------------------|

eb|-----------10------------------------------------|
bb|--8br---10----10br----------8--------------------|
gb|--7br-7-------9-br-7~~--7h9---------------7------|
db|------------------------------9/10~~-10-9---7~~--|
ab|-------------------------------------------------|
eb|-------------------------------------------------|

eb|------------------------------------------|
bb|--7-8-7-8---------7-8-7-8p7----------7-8--|
gb|----------7-----------------7~~--7p9------|
db|------------9-----------------------------|
ab|--------------10--------------------------|
eb|------------------------------------------|

eb|----------------------12-10-12--10----10-------------------------------------------------|
bb|--8br----10br-10br-----------------12-----13h15p13p12--13-12----12-------12-12-12-/10~~--|
gb|--7br-7--9-br-9-br-7-----------------------------------------14----12--------------------|
db|----------------------------------------------------------------------12-----------------|
ab|-----------------------------------------------------------------------------------------|
eb|-----------------------------------------------------------------------------------------|
Comments