Kings X - Mississippi Moon Chords & Tabs

 

Mississippi Moon Chords & Tabs

Kings X Chords & Tabs

Version: 1 Type: Tab 0 ratings
1 star 2 stars 3 stars 4 stars 5 stars
comments

Mississippi Moon Tab

   
-----------------------------------------------------------------------------
		     Mississippi Moon (solo) - King's X
-----------------------------------------------------------------------------
Tabbed by:  darcy a. farris
Email:  dfarris75@hotmail.com)
tuned down 1/2 step (i think. it's been a while since i messed with this as i
tabbed it in '97 or '98. i currently lost this cd so i can't verify. it may also be in drop d. i forget.)

e|------------10--12--12/14----------------------------------|
B|---------10---------------13--13/15--13--------------------|
G|-7--9/11---------------------------------14^14--12--11-----|
D|--------------------------------------------------------14-|
A|-----------------------------------------------------------|
E|-----------------------------------------------------------|
[ Tab from: http://www.guitartabs.cc/tabs/k/kings_x/mississippi_moon_tab.html ]
e|--------------------------------------------------------15-|
B|-----------------------------15--12^12---------------15----|
G|---------------------------------------14--12--14/16-------|
D|-12h14p12--10--12--14^14--12-------------------------------|
A|-----------------------------------------------------------|
E|-----------------------------------------------------------|

e|-14^14p12--------------------------------------------------|
B|----------15^15p13--------------------15----------15-------|
G|-------------------16^16p14--12--\9------14\11/14----17\12-|
D|-----------------------------------12----------------------|
A|-----------------------------------------------------------|
E|-----------------------------------------------------------|

e|-----------------------------------------------------------|
B|---10------------------------------------------------------|
G|-9----12---------------------------------------------------|
D|---------12--9h10p9----------------------------------------|
A|-----------------------------------------------------------|
E|-----------------------------------------------------------|

| ^  bend
| /  slide up
| \  slide down
| h  hammer-on
| p  pull-off
| ~  vibrato
| +  harmonic
| x  Mute note
=============================================================================
Comments