Kings X - Dream In My Life Chords & Tabs

 

Dream In My Life Chords & Tabs

Kings X Chords & Tabs

Version: 1 Type: Tab 0 ratings
1 star 2 stars 3 stars 4 stars 5 stars
comments

Dream In My Life Tab

#----------------------------------PLEASE NOTE---------------------------------#
#This file is the author's own work and represents their interpretation of the #
#song. You may only use this file for private study, scholarship, or research. #
#------------------------------------------------------------------------------#

Date: Wed, 10 Dec 1997 16:17:44 -0500
From: Dan Fisher 
Subject: Re: TAB: "Over My Head" by King's X -Reply -Reply -Reply


DREAM IN MY LIFE - KING'S X - from the eponymous album 1992

Wanda, here's your chance to play your favorite song...

Dropped D tuning DADGBE  -  ==== denotes sustain

Tabbed by Daniel S. Fisher during several parts of 1996 and 1997.

Comments welcome at wetstone@compuserve.com

What can be said about true beauty?  This song gets better with each listen.

Approximate BPM = 87                                                      

4/4
[Drum beat and then sustained Em chord before first arpeggio]  

1                                                2                       
|------------------------------------------------|------------------------
|------------------------------------------------|--------------------0===
|--------4=======================================|--------2======--2======
|-----------5====================================|-----------5============
|-----2==========================================|--4=====================
|--2=============================================|------------------------
                 
                        3                                               
------------------------|------------------------------------------------
========================|------------------------------------------------
========================|-----------0======-----------------------0======
========================|--------2=========--------------4===============
========================|--3===============--5===========================
------------------------|------------------------------------------------
                     
4                                                5                       
|------------------------------------------------|------------------------
|--------------------3===========================|------------------------
|-----------0====================================|--------4===============
|--------2======--2==============================|-----------5============
|--0=============================================|-----2==================
|------------------------------------------------|--2=====================
   
                        6                                               
------------------------|------------------------------------------------
------------------------|--------------------0===========================
========================|--------2======--2==============================
========================|-----5===--5====================================
========================|--4=============================================
========================|------------------------------------------------
    
7                                                8                       
|------------------------------------------------|------------------------
|------------------------------------------------|--------------------3===
|-----------0======-----------------------0======|-----------0============
|--------2=========--------------4===============|--------2======--2======
|--3===============--5===========================|--0=====================
|------------------------------------------------|------------------------
   
                        9                                               
------------------------|------------------------------------------------
========================|--------------------3===========================
========================|-----------0====================================
========================|--------0======--0==============================
========================|------------------------------------------------
------------------------|--5=============================================
                   

10   [with guitar arpeggios throughout]          11                      
|-----------0===--0======--0--0======--0===--0--0|-----------0===--0======
|-----------0===--0======--0--0======--0===--0--0|-----------0===--0======
|-----------2===--2======--2--2======--2===--2--2|-----------2===--2======
|-----------4===--4======--4--4======--4===--4--4|-----------4===--4======
|------------------------------------------------|--2===--2=========--2===
|--4===--4=========--4=========--4===============|------------------------
 Chorus a:           If    I     have   a           dream    in    my
 Chorus b:           If    I     have   a           dream    in    my
 Chorus c:          Yes    I     have   a           dream    in    my

                        12                                              
--0--0======--0===--0--0|-----------0===--0======--0--0======--0===--0--0
--0--0======--0===--0--0|-----------0===--0======--0--0======--0===--0--0
--2--2======--2===--2--2|-----------2===--2======--2--2======--2===--2--2
--4--4======--4===--4--4|-----------4===--4======--4--4======--4===--4--4
========================|------------------------------------------------
------------------------|--4===============--4=========--4===============
  life                                       I   dream   I'm  with 
  life                                       I   dream   it   with
  life                                       I   dream   it   with


13                                               14
|-----------0===--0======--0--0======--0===--0--0|-----------0===--0======
|-----------0===--0======--0--0======--0===--0--0|-----------0===--0======
|-----------2===--2======--2--2======--2===--2--2|-----------2===--2======
|-----------4===--4======--4--4======--4===--4--4|-----------4===--4======
|--2===--2=========--2===========================|------------------------
|------------------------------------------------|--4===============--4===
                                                                  
   you                                                                If
   you                                                                If
   you                                                               Yes


[play only after first verse]
14a                     15a
--0--0======--0===--0--0|-----------0===--0======--0--0======------------|
--0--0======--0===--0--0|-----------0===--0======--0--0======------------|
--2--2======--2===--2--2|-----------2===--2======--2--2======------------|
--4--4======--4===--4--4|-----------4===--4======--4--4======------------|
------------------------|--2===--2=========--2===============------------|
======--4===============|------------------------------------3===========|
  

===> return above to beginning of verse 2

[ Tab from: http://www.guitartabs.cc/tabs/k/kings_x/dream_in_my_life_tab.html ]
[play only after second verse]
14b                     15b
--0--0======--0===--0--0|-----------0===--0======--0--0======--0===--0--0|
--0--0======--0===--0--0|-----------0===--0======--0--0======--0===--0--0|
--2--2======--2===--2--2|-----------2===--2======--2--2======--2===--2--2|
--4--4======--4===--4--4|-----------4===--4======--4--4======--4===--4--4|
------------------------|--2===--2=========--2===========================|
======--4===============|------------------------------------------------|
  
16
|-----------0===--0======--0--0======--0===--0--0|
|-----------0===--0======--0--0======--0===--0--0|
|-----------2===--2======--2--2======--2===--2--2|
|-----------4===--4======--4--4======--4===--4--4|
|------------------------------------------------|
|--4===============--4=========--4===============|
                          


17
|-----------0===--0======--0--0======------------|
|-----------0===--0======--0--0======------------|
|-----------2===--2======--2--2======------------|
|-----------4===--4======--4--4======3===========|
|--2===============--2===============3===========|
|====================----------------3==========



18                       
|------------------------------------------------|
|------------------------------------------------|
|------------------------------------------------|
|--0--2-----2-----0--2===------------------------|
|--0--2-----2-----0--2===------------------------|
|--0--2-----2-----0--2===------------------------|
                            
19                                              
|------------------------------------------------|
|------------------------------------------------|
|------------------------------------------------|
|--5--7-----7-----5--7===------------------------|
|--5--7-----7-----5--7===------------------------|
|--5--7-----7-----5--7===------------------------|
   
20                                               21                      
|------------------------------------------------|------------------------
|--------------------------------------7===--8===|------------------------
|--5=========--------------7=========--7===--7===|------------------------
|--5=========--------------7=========--7===--7===|--5--7-----7===--5--7===
|--3=========--------------5=========------------|--5--7-----7===--5--7===
|------------------------------------------------|--5--7-----7===--5--7===
   
                        22                                              
------------------------|------------------------------------------------
------------------------|------------------------------------------------
------------------------|------------------------------------------------
------------------------|--3--5-----5-----9--5-----------------5===------
------------------------|--3--5-----5-----9--5-----------------5===------
------------------------|--3--5-----5-----9--5-----------------5===------
                  
23                                                                     
|------------------------------------------------||
|------------------------------------------------||
|------------------------------------------------||
|--4=========-----------0--3===-----0--2===------||
|--4=========-----------0--3===-----0--2===------||
|--4=========-----------0--3===-----0--2===------||
                                  ----->  [after measure 23, go back to  
                                  --|      measure 18 for the second part
                                    |      then continue to measure 24]
                                    V
24 
|--------------------------------------2=========
|--------------------------------------3=========
|--------------------------------------2=========
|--0--2-----2-----0--2===------------------------
|--0--2-----2-----0--2===------------------------
|--0--2-----2-----0--2===------------------------


25                                              
|--------------------------------------2=========
|--------------------------------------3=========
|--------------------------------------2=========
|--0--2-----2-----0--2===------------------------
|--0--2-----2-----0--2===------------------------
|--0--2-----2-----0--2===------------------------
                                                                     

26                                               27                      
|--------------------------------------2=========|------------------------
|--------------------------------------3=========|------------------------
|--------------------------------------2=========|------------------------
|--0--2-----2-----0--2===-----------0------------|--0--2-----2-----0--2===
|--0--2-----2-----0--2===-----------0------------|--0--2-----2-----0--2===
|--0--2-----2-----0--2===-----------0------------|--0--2-----2-----0--2===
                                                                  

                        28  GUITAR SOLO...
--------------2=========|------------------------------------------------
--------------3=========|------------------------------------------------
--------------2=========|--------4=======================================
------------------------|-----------5====================================
-----------0------------|-----2==========================================
-----------0------------|--2=============================================
                                                                     

29                                               30                      
|------------------------------------------------|------------------------
|------------------------------------------------|--------0===============
|================================================|-----------0============
|================================================|-----2==================
|================================================|--0=====================
|================================================|------------------------
                                                                  


------------------------|  [repeat 2x during solo and then
========================|     into measure 31]
========================|
========================|
========================|
------------------------|


31

|------------------------------------------------|
|------------------------------------------------|
|--0--2-----2-----0--2============--0------------|
|--2--2-----2-----2--2============--2------------|
|--3--3-----3-----3--3============--3------------|
|------------------------------------------------|
                        
32
|------------------------------------------------|| [repeat 3x]
|------------------------------------------------||
|--0--2-----2-----0--2============--0------------||
|--4--4-----4-----4--4============--4------------||
|--5--5-----5-----5--5============--5------------||
|------------------------------------------------||
      ---
                            |
                            V

[go immediately to CHORUS C at measure 10 and after starting measure 14
  continue and repeat/fade with the following:]

[14c]                   33
--0--0======--0===--0--0|-----------0===--0======--0--0======--0===--0--0|
--0--0======--0===--0--0|-----------0===--0======--0--0======--0===--0--0|
--2--2======--2===--2--2|-----------2===--2======--2--2======--2===--2--2|
--4--4======--4===--4--4|-----------4===--4======--4--4======--4===--4--4|
------------------------|--2===--2=========--2===========================|
======--4===============|------------------------------------------------|
  

34
|-----------0===--0======--0--0======--0===--0--0|
|-----------0===--0======--0--0======--0===--0--0|
|-----------2===--2======--2--2======--2===--2--2|
|-----------4===--4======--4--4======--4===--4--4|
|------------------------------------------------|
|--4===============--4=========--4===============|
                       

35                                               36
|-----------0===--0======--0--0======--0===--0--0|-----------0===--0======||
|-----------0===--0======--0--0======--0===--0--0|-----------0===--0======||
|-----------2===--2======--2--2======--2===--2--2|-----------2===--2======||
|-----------4===--4======--4--4======--4===--4--4|-----------4===--4======||
|------------------------------------------------|------------------------||
|--2===============--2=========--2===============|--4===============--4===||
   

[repeat and fade]

Comments