Kings X - Dogman Chords & Tabs

 

Dogman Chords & Tabs

Kings X Chords & Tabs

Version: 1 Type: Bass Tab 0 ratings
1 star 2 stars 3 stars 4 stars 5 stars
comments

Dogman Bass Tab

   
-------------------------------------------------------------------------------
			     Dog Man - King's X
-------------------------------------------------------------------------------

Tabbed By :Rayman123
e-mail: thebenpage@hotmail.com
[ Tab from: http://www.guitartabs.cc/tabs/k/kings_x/dogman_btab.html ]
Tuning:Db, Ab, D, G
    Verse
G|---------------------------------------------------------------------------|
D|---------------------------------------------------------------------------|
Ab|-----------------5---5----------------5-----------------------------------|
Db|0------------7-6---6---5-3-530---6--5---5-0-333---------------------------|
    Chorus
G|---------------------------------------------------------------------------|
D|---------------------------------------------------------------------------|
Ab|-----------------------------0-33-0-3-5/0-0-0-0-3-------------5---5-------|
Db|0222-22-0222-5/-0------0-0-0------------------------------------6---530---|
    Interlude
G|---------------------------------------------------------------------------|
D|---------------------------------------------------------------------------|
Ab|-------5--------5--------5--5---5-----------------------------------------|
Db|-0-0-0----0-0-0----0-0-0------6---5-3-0-----------------------------------|
    Bridge
G|------------------------------------------------------------------------------|
D|------------------------------------------------------------------------------|
Ab|-----------------------------------------------------------------------------|
Db|22222222-33333333-55555555-77777777--3333333-5555555-7777777-88888-10101010--|

G|---------------------------------------------------------------------------|
D|---------------------------------------------------------------------------|
Ab|-5--5---------------------------------------------------------------------|
Db|--6---530-----------------------------------------------------------------|
    Outro
G|---------------------------------------------------------------------------|
D|---------------------------------------------------------------------------|
Ab|------5-------5-------5-5---5---------------------------------------------|x2
Db|0-0-0---0-0-0---0-0-0-----6---530-----------------------------------------|
Comments