Kings X - A Box Chords & Tabs

 

A Box Chords & Tabs

Kings X Chords & Tabs

Version: 1 Type: Tab 0 ratings
1 star 2 stars 3 stars 4 stars 5 stars
comments

A Box Tab

   
---------------------------------------------------------------------------
			     A Box - KINGS X
---------------------------------------------------------------------------
Tabbed by:Kev

Email:talk_tonight100@yahoo.co.uk

Tuning: D A D G B E

		I F##KING LOVE THIS SONG!!!

  INTRO  
  
e|---------------------------------------------|-------------------------|
B|---------------------------------------------|-------------------------|
G|-------6--------6--------6--------6--------6-|-------6--------6--------|
D|----4--------4--------4--------4--------4----|----4--------4-----------|
A|-6--------4--------------------------2-------|-6--------4--------------|
D|-------------------4--------6----------------|-------------------------|
[ Tab from: http://www.guitartabs.cc/tabs/k/kings_x/a_box_tab.html ]
e|----------------------------|------------------------------------------|
B|----------------------------|----Repeat this twice---------------------|
G|-------6--------6--------6--|------------------------------------------|
D|----4--------4--------4-----|------------------------------------------|
A|----------------------------|------------------------------------------|
D|-4--------6--------4--------|------------------------------------------|


   VERSE

e|--------|--------|--------2--|--2--------|-----------------------------|
B|---7----|---7----|--(4)---2--|--2-----7--|-----------------------------|
G|---6----|---6----|--(3)---4--|--4-----6--|-----------------------------|
D|---4----|---4----|---1----4--|--4-----6--|------then play the intro ---|
A|---4----|---4----|---1----2--|--2-----4--|-------------part------------|
D|---4----|---4----|---1-------|-----------|-----------------------------|




  CHORUS  (listen to the record to get the chord 
               changes in the right places)

e|-----------------------------------------------------------------------|
B|-----------------------------------------------------------------------|
G|--------4--------6--4--------4--4--4--4--6--4--6--6--------------------|
D|--4--4--4--4--4--6--4--1-1---4--4--4--4--6--4--6--6--------------------|
A|--4--4--2--4--4--4--2--1-1---2--2--2--2--4--2--4--4--------------------|
D|--4--4-----4--4--------1-1---------------------------------------------|

repeat the verse and chorus, then a solo which uses the same chords as
the chorus 

i will post the solo shortly. THANX
Comments