Kings Of Leon - Wasted Time Chords & Tabs

 

Wasted Time Chords & Tabs

Kings Of Leon Chords & Tabs

Version: 1 Type: Tab 0 ratings
1 star 2 stars 3 stars 4 stars 5 stars
comments

Wasted Time Tab

   
#----------------------------------PLEASE NOTE---------------------------------#
#This file is the author's own work and represents their interpretation of the #
#song. You may only use this file for private study, scholarship, or research. #
#------------------------------------------------------------------------------

Group/Singer Name:      Kings Of Leon
Song:                   "Wasted Time"
Additional Info:        Youth & Young Manhood - Track 03
Tuning:                 Standard - [EADGBe]
Tabbed By:              Dean Hill - Comments, Suggestions? the.scotsman@blueyonder.co.uk


[Chords Used]   E(022100); D(XX0232); A(X02220); G(320003)


[Intro]         | E     | E     | E     | E     |


                ****************************************
                *KINGS OF LEON - WASTED TIME LEAD PARTS*
                ****************************************



b  -  Bend
() -  Bracketed numbers are the note you bend up to
h  -  Hammer On
p  -  Pull Off
r  -  Return
/  -  Slide Up
  -  Slide Down
d  -  Strum Down
u  -  Strum Up
PM -  Palm Mute
NH -  Natural Harmonics
^  -  Vibrato





[INTRO] X4
e ----------------------------------------------------------------------
B ----------------------------------------------------------------------
G ----------------------------------------------------------------------
D ----------------------------------------------------------------------
A ----7----7---/5-------------------------------------------------------
E -0----0---------------------------------------------------------------



[VERSE 1 & BRIDGE 1] - Nothing played



[CHORUS]
       "...her innocent smile"     "...a runnin' free"
E ----------------------------------------------------------------------
B -3---------------------------3---------------------3---3---3----------
G -2-2-------------------------2-2-------------------2-2-2-2-2----------
D ---2---------------------------2---------------------2---2------------
A ----------------------------------------------------------------------
E ----------------------------------------------------------------------

"...baby gone give it like it used to be"  
  --0-------------------------------------------------------------------
  --5--------------------------------------3-2-0--3-2-0-----------------
  --4-------------------------------------------------------------------
  ----------------------------------------------------------------------
  ----------------------------------------------------------------------
  ----------------------------------------------------------------------
  
"...baby gone give it like it used to be"  
  --0-------------------------------------------------------------------
  --5--------------------------------------3-2-0--3-2-0-----------------
  --4-------------------------------------------------------------------
  ----------------------------------------------------------------------
  ----------------------------------------------------------------------
  ----------------------------------------------------------------------



[VERSE 2]
 
e ----------------------------------------------------------------------
B ----------------------------------------------------------------------
G ----------------------------------------------------------------------
D ----------------------------------------------------------------------
A ----------------------------------------------------------------------
E -0-0-0-00--0003-3--[TIMES 7, THEN PLAY]--0-0-0-00--0003---------------



[BRIDGE 2] X4
e ----------------------------------------------------------------------
B ----------------------------------------------------------------------
G ----------------------------------------------------------------------
D ----------------------------------------------------------------------
A ----7----7---/5-------------------------------------------------------
E -0----0---------------------------------------------------------------



[REPEAT CHORUS]



[SOLO]
e ----------------------------------------------------------------------
B ----------------------------------------------------------------------
G --------0-----0---------0-----0---------0-----0---------0-----0-------
D -----2-------2-------2-------2-------2-------2-------2-------2--------
A -/4------/4------/4------/4------/4------/4------/4------/4-----------
E ----------------------------------------------------------------------


The next part of the solo uses effects, so I've tabbed it for a dry (no FX)
guitar. It's not perfect by any means, but you can get away with it.

[ Tab from: http://www.guitartabs.cc/tabs/k/kings_of_leon/wasted_time_tab.html ]
e ----------------------------------------------------------------------
B -3sb(5)-(5)-(5)sr3---3sb(5)-(5)-(5)sr3---3-3sb(5)-(5)(5)-(5)sr3-------
G ----------------------------------------------------------------------
D ----------------------------------------------------------------------
A ----------------------------------------------------------------------
E ----------------------------------------------------------------------
                                      NH----------------|
  ----------------------------------------------------------------------
  -3b(5)-(5)-(5)-(5)(5)(5)sr3----------------------------------------
  ----------------------------------------------------------
  ----------------------------------------------------------------------
  ----------------------------------------------------------------------
  ----------------------------------------------------------------------



[MIDDLE 8]
"...show your face"     "...shaker"    "...give"      "...take ah"
e ----------------------------------------------------------------------
B ------------3-2-0--3-2-0---3-2-0--3-2-0---3-2-0--3-2-0---3-2-0--3-2-0-
G ----------------------------------------------------------------------
D ----------------------------------------------------------------------
A ----------------------------------------------------------------------
E ----------------------------------------------------------------------



[OUTRO]
       "...her innocent smile"     "...a runnin' free"
E ----------------------------------------------------------------------
B -3---------------------------3---------------------3---3---3----------
G -2-2-------------------------2-2-------------------2-2-2-2-2----------
D ---2---------------------------2---------------------2---2------------
A ----------------------------------------------------------------------
E ----------------------------------------------------------------------

"...baby gone give it like it used to be"  
  --0-------------------------------------------------------------------
  --5--------------------------------------3-2-0--3-2-0-----------------
  --4-------------------------------------------------------------------
  ----------------------------------------------------------------------
  ----------------------------------------------------------------------
  ----------------------------------------------------------------------
  
       "...her innocent smile"     "...a runnin' free"
E ----------------------------------------------------------------------
B -3---------------------------3---------------------3---3---3----------
G -2-2-------------------------2-2-------------------2-2-2-2-2----------
D ---2---------------------------2---------------------2---2------------
A ----------------------------------------------------------------------
E ----------------------------------------------------------------------
  
"...baby gone give it like it used to be"  
  --0-------------------------------------------------------------------
  --5--------------------------------------3-2-0--3-2-0-----------------
  --4-------------------------------------------------------------------
  ----------------------------------------------------------------------
  ----------------------------------------------------------------------
  ----------------------------------------------------------------------

"...baby gone give it like it used to be"  
  --0-------------------------------------------------------------------
  --5--------------------------------------3-2-0--3-2-0-----------------
  --4-------------------------------------------------------------------
  ----------------------------------------------------------------------
  ----------------------------------------------------------------------
  ----------------------------------------------------------------------
  
"...baby gone give it like it used to be"  
  --0-------------------------------------------------------------------
  --5--------------------------------------3-2-0--3-2-0-----------------
  --4-------------------------------------------------------------------
  ----------------------------------------------------------------------
  ----------------------------------------------------------------------
  ----------------------------------------------------------------------
  
"...baby gone give it like it used to be"  
  --0--------------------------------------------------------------------
  --5--------------------------------------------------------------------
  --4-------------------------------------XX-----------------------------
  ----------------------------------------XX-2/--------------------------
  ----------------------------------------XX-2/--------------------------
  ----------------------------------------XX-0---------------------------






****************************************************************************************
****************************************************************************************
****************************************************************************************

Comments