Kings Of Leon - Taper Jean Girl Chords & Tabs

 

Taper Jean Girl Chords & Tabs

Kings Of Leon Chords & Tabs

Version: 1 Type: Bass Tab 0 ratings
1 star 2 stars 3 stars 4 stars 5 stars
comments

Taper Jean Girl Bass Tab

---------------------------------------------------------------------------
Song:Taper Jean Girl
Artist:Kings of Leon
Album:A-Ha Shake Heartbreak
Tabber:Alexthebeatle
---------------------------------------------------------------------------

Intro (0:08) :
E ----------------I----------------I----------------I-----------------|I
G ----------------I----------------I----------------I-----------------|I
D 7--77---7-77---I7--77---7--77---I7--77---7-77---I7--77---7--77----|I
A ----------------I----------------I----------------I-----------------|I


Verse :
E ---------------------------------------------------------------------|
G ---------------------------------------------------------------------|
D -7--77--7-77--7--77--7--77--12--1212--12--1212--12--1212--12--1212--|
A ---------------------------------------------------------------------|

                                                                  (5x)

Chorus :
E ----------------I----------------I----------------I-----------------|I
G ----------------I----------------I----------------I-----------------|I
D -------5-------5I-------5-------5I-------5-------5I-------5-------5-|I
A 0---5/7-0---5/7-I0---5/7-0---5/7-I0---5/7-0---5/7-I0---5/7-0---5/7--|I

E ----------------I----------------I----------------I-----------------|I
G ----------------I----------------I----------------I-----------------|I
D -------5-------5I-------5-------5I-------5-------5I-------5---------|I
A 0---5/7-0---5/7-I0---5/7-0---5/7-I0---5/7-0---5/7-I0---5/7----------|I

Pre Verse :
E ---------------------------9//-----------------------------------14\\-|
G -------------------------9-------------------------------------14-----|
D -7--77--7-77--7--77--7-------12--1212--12--1212--12--1212--12--------|
A ----------------------------------------------------------------------|

[ Tab from: http://www.guitartabs.cc/tabs/k/kings_of_leon/taper_jean_girl_btab.html ]
Verse :
E ---------------------------------------------------------------------|
G ---------------------------------------------------------------------|
D -7--77--7-77--7--77--7--77--12--1212--12--1212--12--1212--12--1212--|
A ---------------------------------------------------------------------|

								  (3x)


Chorus :
E ----------------I----------------I----------------I-----------------|I
G ----------------I----------------I----------------I-----------------|I
D -------5-------5I-------5-------5I-------5-------5I-------5-------5-|I
A 0---5/7-0---5/7-I0---5/7-0---5/7-I0---5/7-0---5/7-I0---5/7-0---5/7--|I

E ----------------I----------------I----------------I-----------------|I
G ----------------I----------------I----------------I-----------------|I
D -------5-------5I-------5-------5I-------5-------5I-------5---------|I
A 0---5/7-0---5/7-I0---5/7-0---5/7-I0---5/7-0---5/7-I0---5/7----------|I

Pre Verse :
E ---------------------------9//-----------------------------------14\\-|
G -------------------------9-------------------------------------14-----|
D -7--77--7-77--7--77--7-------12--1212--12--1212--12--1212--12--------|
A ----------------------------------------------------------------------|

							           (3x)


End:
E ----------------I----------------I----------------I-----------------|I
G ----------------I----------------I----------------I-----------------|I
D -------5-------5I-------5-------5I-------5-------5I-------5-------5-|I
A 0---5/7-0---5/7-I0---5/7-0---5/7-I0---5/7-0---5/7-I0---5/7-0---5/7--|I   (5x)

E ----------------I----------------I----------------I-----------------|I
G ----------------I----------------I----------------I-----------------|I
D -------5-------5I-------5-------5I-------5-------5I-----------------|I
A 0---5/7-0---5/7-I0---5/7-0---5/7-I0---5/7-0---5/7-I0----------------|I
Comments