Kings Of Leon - Slow Night, So Long Chords & Tabs

 

Slow Night, So Long Chords & Tabs

Kings Of Leon Chords & Tabs

Version: 2 Type: Bass Tab

Slow Night, So Long Bass Tab

i have only played this on guitar but....................
   

intro   and   verses:
-----------------------------------------------]
--7777-0----7777-0---------------4---2--4------]
---------------------77777777--4---------------]
-----------------------------------------------]and straight into...

-------------------------------------------------]
--4/5-555-0---4/5-555-0---4/5-555-0----4/5-555-0-]
-------------------------------------------------]
-------------------------------------------------]
[ Tab from: http://www.guitartabs.cc/tabs/k/kings_of_leon/slow_night_so_long_btab_ver_2.html ]
then the instrumental bit
....play note 8 times then 4 times fast....
--------------------------------------------------]
--7-7-7-7-7-7-7-7-7777----------------------------]
--------------------------------------------------]
--------------------------------------------------]
then this 4 tmes then back to the above 
------------2-------------------------------------]
--55---55-----------------------------------------]
----4---------------------------------------------]
--------------------------------------------------] ....x 4

and then back to the main part and just end on 
---------]
-7-------]
---------]
---------]