Kings Of Leon - Slow Night, So Long Chords & Tabs

 

Slow Night, So Long Chords & Tabs

Kings Of Leon Chords & Tabs

Version: 1 Type: Bass Tab 0 ratings
1 star 2 stars 3 stars 4 stars 5 stars
comments

Slow Night, So Long Bass Tab

------------------------------------------------------------------------------
              ****KINGS OF LEON - SLOW NIGHT, SO LONG****
------------------------------------------------------------------------------

Standard Tuning - EADG

INTRO & VERSE RIFF (REPEATS THROUGHOUT)

G--9-9-9-9---9-9-9-9---9-/-14-14-14-14-14-14-14-14-11-11-9-9-----|
D----------7---------7-------------------------------------------|
A----------------------------------------------------------------|
E----------------------------------------------------------------|
[ Tab from: http://www.guitartabs.cc/tabs/k/kings_of_leon/slow_night_so_long_btab.html ]
G--7-7-7-7---7-7-7-7---7-7-7-7---7-7-7-7-----|
D----------7---------7---------7---------7---|
A--------------------------------------------|
E--------------------------------------------|

BREAK

Then the next bit is just the E & A strings played together repeatedly.

G------------------------------------|
D------------------------------------|
A------0-----------------------------|
E------5-----------------------------|

Which then goes into this bit.

G-------------------------|
D---------16--------------|      This bit is played four times.
A---17-17----17-17-12-----|
E-------------------------|

That is basically the three parts as far as I can make out. Listen to the song to get 
right sequence. Feel free to e-mail any corrections.
Enjoy.
Comments