Kings Of Leon - Sex On Fire Chords & Tabs

 

Sex On Fire Chords & Tabs

Kings Of Leon Chords & Tabs

Version: 1 Type: Bass Tab 0 ratings
1 star 2 stars 3 stars 4 stars 5 stars
comments

Sex On Fire Bass Tab

   
-------------------------------------------------------------------------------
			     Sex On Fire - Kings Of Leon
-------------------------------------------------------------------------------

Tabbed By :  Shane Gavin
e-mail: shanegavin100@hotmail.com

Tuning: EADG

Intro and 1st Verse

G|-------------------------------------------------------------------------|
D|---------------------------6-6--------------------------6-6--------------|
A|---4-4\--4-4---4-4---4-4---------7-7---7-7---7-7---7-7-------------------|
E|-------------------------------------------------------------------------|

G|-------------------------------------------------------------------------|
D|---------------------------6-6--------------------------6-6--------------|
A|---4-4---4-4---4-4---4-4---------7-7---7-7---7-7---7-7-------------------|
E|-------------------------------------------------------------------------|

G|-------------------------------------------------------------------------|
D|---------------------------6-6-------------------------------------------|
A|---4-4---4-4---4-4---4-4---------7-7-7-7-7-7-7-7-7-7-7-7-7-7-7-7-7-7-7---|
E|-------------------------------------------------------------------------|

G|------------------------------------------|
D|------------------------------------6-6---|
A|---4-4-4-4-4-4-4-4-4-4-4-4-4-4-4-4--------|
E|------------------------------------------|


Chorus

G|------------------------------------------------------------------4h6-----|
D|--------------------------------6-------------------------------6---------|
A|---7-7-7-7-7-7-7-7-7-7-7-7-7-7------7-7-7-7-7-7-7-7-7-7-7-7-7-7-----------|
E|--------------------------------------------------------------------------|

G|--------------------------------------------------------------------------|
D|--------------------------------------------------------------------------|
A|---4-4-4-4-4-4-4-4-4-4-4-4-4-4-4------------------------------------------|
E|-----------------------------------5-5-5-5-5-5-5-5-5-5-5-5-5-5-5-5-5------|


2nd Verse

G|---------------------------------------------------------------|
D|--------------------------6-6-------------------------6-6------|
A|---7-7---7-7---7-7---7-7-------4-4---4-4---4-4---4-4-----------|
E|---------------------------------------------------------------|

G|--------------------------------------------------------------------------|
D|-------------------------------6-6----------------------------------------|
A|---7-7-7-7-7-7-7-7-7-7-7-7-7-7-----4-4-4-4-4-4-4-4-4-4-4------------------|
E|---------------------------------------------------------5-5-5-5-5-5-5-5--|


2nd Chorus

G|------------------------------------------------------------------4h6-----|
D|-------------------------------6--------------------------------6---------|
A|---7-7-7-7-7-7-7-7-7-7-7-7-7-7------7-7-7-7-7-7-7-7-7-7-7-7-7-7-----------|
E|--------------------------------------------------------------------------|

G|--------------------------------------------------------------------------|
D|--------------------------------------------------------------------------|
A|---4-4-4-4-4-4-4-4-4-4-4-4-4-4-4------------------------------------------|
E|-----------------------------------5-5-5-5-5-5-5-5-5-5-5-5-5-5-5-5-5------|

G|-----------------------------------------------------------------4h6------|
D|-------------------------------6-------------------------------6----------|
A|---7-7-7-7-7-7-7-7-7-7-7-7-7-7-----7-7-7-7-7-7-7-7-7-7-7-7-7-7------------|
E|--------------------------------------------------------------------------|
[ Tab from: http://www.guitartabs.cc/tabs/k/kings_of_leon/sex_on_fire_btab.html ]
G|--------------------------------------------------------------------------|
D|--------------------------------------------------------------------------|
A|---4-4-4-4-4-4-4-4-4-4-4-4-4-4-4------------------------------------------|
E|-----------------------------------5-5-5-5-5-5-5-5-5-5-5-5-5-5-5-5-5------|


3rd Verse

G|---------------------------------------------------------------|
D|--------------------------6-6-------------------------6-6------|
A|---7-7---7-7---7-7---7-7-------4-4---4-4---4-4---4-4-----------|
E|---------------------------------------------------------------|

G|--------------------------------------------------------------------------|
D|-------------------------------6-6----------------------------------------|
A|---7-7-7-7-7-7-7-7-7-7-7-7-7-7-----4-4-4-4-4-4-4-4-4-4-4------------------|
E|---------------------------------------------------------5-5-5-5-5-5-5-5--|


3rd Chorus

G|------------------------------------------------------------------4h6-----|
D|-------------------------------6--------------------------------6---------|
A|---7-7-7-7-7-7-7-7-7-7-7-7-7-7------7-7-7-7-7-7-7-7-7-7-7-7-7-7-----------|
E|--------------------------------------------------------------------------|

G|--------------------------------------------------------------------------|
D|--------------------------------------------------------------------------|
A|---4-4-4-4-4-4-4-4-4-4-4-4-4-4-4------------------------------------------|
E|-----------------------------------5-5-5-5-5-5-5-5-5-5-5-5-5-5-5-5-5------|


Bridge

G|---------------------------------------------------------------|
D|--------------------------9-9-------------------------6-6------|
A|---7-7---7-7---7-7\-/7-7-------4-4---4-4---4-4---4-4-----------|
E|---------------------------------------------------------------|

G|---------------------------6h8-6-6-6-6-6-6-6-6-6-6------------------------|
D|-------------------------6-------------------------7-7-7-7-7-7-7-7-7-7-7--|
A|---7-7---7-7---7-7---7-7--------------------------------------------------|
E|--------------------------------------------------------------------------|


Outro Chorus

G|------------------------------------------------------------------4h6-----|
D|-------------------------------6--------------------------------6---------|
A|---7-7-7-7-7-7-7-7-7-7-7-7-7-7------7-7-7-7-7-7-7-7-7-7-7-7-7-7-----------|
E|--------------------------------------------------------------------------|

G|--------------------------------------------------------------------------|
D|--------------------------------------------------------------------------|
A|---4-4-4-4-4-4-4-4-4-4-4-4-4-4-4------------------------------------------|
E|-----------------------------------5-5-5-5-5-5-5-5-5-5-5-5-5-5-5-5-5------|

G|------------------------------------------------------------------4h6-----|
D|-------------------------------6--------------------------------6---------|
A|---7-7-7-7-7-7-7-7-7-7-7-7-7-7------7-7-7-7-7-7-7-7-7-7-7-7-7-7-----------|
E|--------------------------------------------------------------------------|

G|--------------------------------------------------------------------------|
D|--------------------------------------------------------------------------|
A|---4-4-4-4-4-4-4-4-4-4-4-4-4-4-4--------------------------------------7-7-|
E|-----------------------------------5-5-5-5-5-5-5-5-5-5-5-5-5-5-5-5-5------|





| /  slide up
| \  slide down
| h  hammer-on
| p  pull-off
| ~  vibrato
| +  harmonic
| x  Mute note
===============================================================================
Comments