Kings Of Leon - Red Morning Light Chords & Tabs

 

Red Morning Light Chords & Tabs

Kings Of Leon Chords & Tabs

Version: 7 Type: Tab 0 ratings
1 star 2 stars 3 stars 4 stars 5 stars
comments

Red Morning Light Tab

-----------------------------------------------------------------------------
                      Kings Of Leon - Red Morning Song
-----------------------------------------------------------------------------

hey, there are only either wrong or v. hard tabs for this song so here's a tab for those 
so amazing guitarists.

intro
e|-------------------------------------|
B|-------------------------------------|
G|-------------------------------------|
D|--99999999-7777-5-4-11111111---------|
A|--99999999-7777-5-4-11111111---------|
E|--77777777-5555-3-2-xxxxxxxx---------|   x1

verse 1: .. you no you could of been a wind up......
e|------------------------------|
B|------------------------------|
G|------------------------------|
D|--99999999-22222222-----------|
A|--99999999 22222222-----------|
E|--77777777-xxxxxxxx-----------| x3

then...
e|-----------------------------------|
B|-----------------------------------|
G|-----------------------------------|
D|--99999999-7777-5-4-11111111-------|
A|--99999999-7777-5-4-11111111-------|
E|--77777777-5555-3-2-xxxxxxxx-------| x1

chorus:
e|-----------------------------------|
B|-----------------------------------|
G|-----------------------------------|
D|--99999999-7777-5-4-11111111-------|
A|--99999999-7777-5-4-11111111-------|
E|--77777777-5555-3-2-xxxxxxxx-------| x2

verse 2:
e|------------------------------|
B|------------------------------|
G|------------------------------|
D|--99999999-22222222-----------|
A|--99999999 22222222-----------|
E|--77777777-xxxxxxxx-----------| x3

then...
e|-----------------------------------|
B|-----------------------------------|
G|-----------------------------------|
D|--99999999-7777-5-4-11111111-------|
A|--99999999-7777-5-4-11111111-------|
E|--77777777-5555-3-2-xxxxxxxx-------| x1
[ Tab from: http://www.guitartabs.cc/tabs/k/kings_of_leon/red_morning_light_tab_ver_7.html ]
chorus:
e|-----------------------------------|
B|-----------------------------------|
G|-----------------------------------|
D|--99999999-7777-5-4-11111111-------|
A|--99999999-7777-5-4-11111111-------|
E|--77777777-5555-3-2-xxxxxxxx-------| x4

solo:
e|---------------------------------------------------------------------|
B|17-17-17-17-17-17-17-17-17-17-17-17-17-17-17-17-15-------15--15--15--|
G|---------------------------------------------------16-14-------------|
D|---------------------------------------------------------------------|
A|---------------------------------------------------------------------|
E|---------------------------------------------------------------------|

e|17--17-17-17--17-17-15-----------------------------------------------|
B|------------------------17-15-17-17-15-17-15-17-15----------15-------|
G|---------------------------------------------------16-14-16----16-14-|
D|---------------------------------------------------------------------|
A|---------------------------------------------------------------------|
E|---------------------------------------------------------------------|

e|---------------------------|
B|---------------------------|
G|16--16-16-16-16-16-16-16---|
D|----14-14-14-14-14-14-14---|
A|---------------------------|
E|---------------------------|

next part he sings by himself, then......

e|------------------------------|
B|------------------------------|
G|------------------------------|
D|--99999999--77777777----------|
A|--99999999--77777777----------|
E|--77777777--55555555----------|

chorus:
e|-----------------------------------|
B|-----------------------------------|
G|-----------------------------------|
D|--99999999-7777-5-4-11111111-------|
A|--99999999-7777-5-4-11111111-------|
E|--77777777-5555-3-2-xxxxxxxx-------| x7

and then to finish off with:

e|---------------------------|
B|---------------------------|
G|---------------------------|
D|--99999999-7777-5-4-1------|
A|--99999999-7777-5-4-1------|
E|--77777777-5555-3-2-x------| and let the last chord ring.

Thanx 4 using my tab, plz rate it if you think it's good
any improvements or modifications please contact or email me at tom_totheunderworld@hotmail.com

=Dtom
Comments