Kings Of Leon - Red Morning Light Chords & Tabs

 

Red Morning Light Chords & Tabs

Kings Of Leon Chords & Tabs

Version: 3 Type: Tab 0 ratings
1 star 2 stars 3 stars 4 stars 5 stars
comments

Red Morning Light Tab

   
kings of leon- red morning light youth and young manhood
props go to-sean from www.freewebs.com/youstupidcomputer
this is my first tab so go easy

   intro/verse
[ Tab from: http://www.guitartabs.cc/tabs/k/kings_of_leon/red_morning_light_tab_ver_3.html ]
E|-22-0-2-0-2-0-2
B|-22-0-2-0-2-0-2
G|-33-3-3-3-3-3-3 repeat as many times as neeeded
D|-44-4-4-4-4-4-4
A|-44-4-4-4-4-4-4
E|-22-0-2-0-2-0-2

chorus

E|-5555-3333----------
B|-5555-3333----------
G|-6666-4444----------
D|-7777-5555---------- 
A|-7777-5555----------
E|-5555-3333----------

i have only heard the song once and if anyone figures out the solo
can they send it to me at evilpanda01uk@yahoo.com
Comments