Kings Of Leon - Red Morning Light Chords & Tabs

 

Red Morning Light Chords & Tabs

Kings Of Leon Chords & Tabs

Version: 2 Type: Tab 0 ratings
1 star 2 stars 3 stars 4 stars 5 stars
comments

Red Morning Light Tab

   
#----------------------------------PLEASE NOTE---------------------------------#
#This file is the author's own work and represents their interpretation of the #
#song. You may only use this file for private study, scholarship, or research. #
#------------------------------------------------------------------------------#


Group/Singer Name:      Kings Of Leon
Song:                   "Red Morning Light"
Additional Info:        Youth & Young Manhood - Track 01
Tuning:                 Standard - [EADGBe]
Tabbed By:              Dean Hill - Comments, Suggestions? the.scotsman@blueyonder.co.uk


[Chords Used]   B(799877); A(577655); G(355433); F#(244322); E(022100)


[Intro]           |B         |A      G    F#  |E        |
                e ---------------------------------------
                B -----------------------------000000000-
                G -8888888-XX-666-XX-4-XX-3-XX-111111111-
                D -9999999-XX-777-XX-5-XX-4-XX-222222222-
                A -9999999-XX-777-XX-5-XX-4-XX-222222222-
                E -7777777-XX-555-XX-3-XX-2-XX-000000000-



            **********************************************
            *KINGS OF LEON - RED MORNING LIGHT LEAD PARTS*
            **********************************************



b  -  Bend
() -  Bracketed numbers are the note you bend up to
h  -  Hammer On
p  -  Pull Off
r  -  Return
/  -  Slide Up
  -  Slide Down
d  -  Strum Down
u  -  Strum Up
PM -  Palm Mute
NH -  Natural Harmonics
^  -  Vibrato






NOTE: Lead guitar mirrors rhythm parts 'til solo. (As far as I can work out)
      Then mirrors again 'til end of song.


[SOLO]
   D u D u D u D u D u D u D u D u    D u D u D u D u D u D u D u D u
E -12121212121212121212121212121212-|-12121212121212121212121212121212-
B -12121212121212121212121212121212-|-12121212121212121212121212121212-
G ----------------------------------|----------------------------------
D ----------------------------------|----------------------------------
A ----------------------------------|----------------------------------
E ----------------------------------|----------------------------------

  -12-------12----12----12--15b(17)-|-(17)-(17)-(17)-(17)r15--12-------
  -12h15p12----15----15-------------|----------------------------------
  ----------------------------------|----------------------------------
  ----------------------------------|----------------------------------
  ----------------------------------|----------------------------------
  ----------------------------------|----------------------------------
[ Tab from: http://www.guitartabs.cc/tabs/k/kings_of_leon/red_morning_light_tab_ver_2.html ]
  -12------------------12-----------|-12-------------------------------
  -12--15-12-15b(17)r15----15-------|----15-12-------------------------
  -12-------------------------------|----------14b(16)r14-12-14--------
  ----------------------------------|----------------------------------
  ----------------------------------|----------------------------------
  ----------------------------------|----------------------------------

  ----------------------------------|
  ---------12-12----12----12-------|
  -14b(16)-12----14----14-12-------|
  ----------------------------------|
  ----------------------------------|
  ----------------------------------|



[OUTRO] - In the outro, just after the "...C'Mon!" bit, the lead plays this:

e ----------------------------------|
B ----------------------------------|
G ----------------------------------|
D -7b(9)-(9)-7p5--5-----------------|
A --------------7-------------------|
E ----------------------------------|




****************************************************************************************
****************************************************************************************
****************************************************************************************


                ****************************************
                *KINGS OF LEON - RED MORNING LIGHT SOLO*
                ****************************************


b  -  Bend
() -  Bracketed numbers are the note you bend up to
h  -  Hammer On
p  -  Pull Off
r  -  Return
/  -  Slide Up
  -  Slide Down
d  -  Strum Down
u  -  Strum Up


   D u D u D u D u D u D u D u D u    D u D u D u D u D u D u D u D u
E -12121212121212121212121212121212-|-12121212121212121212121212121212-
B -12121212121212121212121212121212-|-12121212121212121212121212121212-
G ----------------------------------|----------------------------------
D ----------------------------------|----------------------------------
A ----------------------------------|----------------------------------
E ----------------------------------|----------------------------------


E -12-------12----12----12--15b(17)-|-(17)-(17)-(17)-(17)r15--12-------
B -12h15p12----15----15-------------|----------------------------------
G ----------------------------------|----------------------------------
D ----------------------------------|----------------------------------
A ----------------------------------|----------------------------------
E ----------------------------------|----------------------------------


E -12------------------12-----------|-12-------------------------------
B -12--15-12-15b(17)r15----15-------|----15-12-------------------------
G -12-------------------------------|----------14b(16)r14-12-14--------
D ----------------------------------|----------------------------------
A ----------------------------------|----------------------------------
E ----------------------------------|----------------------------------


E ----------------------------------|
B ---------12-12----12----12-------|
G -14b(16)-12----14----14-12-------|
D ----------------------------------|
A ----------------------------------|
E ----------------------------------|
Comments