Kings Of Leon - Red Morning Light Chords & Tabs

 

Red Morning Light Chords & Tabs

Kings Of Leon Chords & Tabs

Version: 1 Type: Tab 1 rating
1 star 2 stars 3 stars 4 stars 5 stars
comments

Red Morning Light Tab

   


Kings of Leon - Red Morning Light

Album: Youth and Young Manhood.
Tabbed by Jake Anziliero.
 email: jok07@hotmail.com


Key:  X- muted string, or all x's means muted strum




Intro:

    B               A       G  F# E
    
e:--7-7-7-7-7-7-7-x-5-5-5-X-3--2--X-x-x-x-x-x-x-x-x----!
B:--7-7-7-7-7-7-7-x-5-5-5-X-3--2--X-x-x-x-x-x-x-x-x----!
G:--8-8-8-8-8-8-8-x-6-6-5-X-4--3--1-1-1-1-1-1-1-1-1----!
D:--9-9-9-9-9-9-9-x-7-7-6-X-5--4--2-2-2-2-2-2-2-2-2----!
A:--9-9-9-9-9-9-9-x-7-7-7-X-5--4--2-2-2-2-2-2-2-2-2----!
E:--7-7-7-7-7-7-7-x-5-5-5-X-3--2--0-0-0-0-0-0-0-0-0----!


Verse:

Chords used
    B      E
e:--7------7------------|
B:--7------8------------|
G:--8------9------------|
D:--9------9------------|
A:--9------7------------|
E:--7------X------------|


"You know you could've been a wonder, taking your circus to the sky-y-y,    
                              
                              B                                  E
e:----------------------------7--7--X-X-7--7---7---7---X---------7--7--X-X---|
B:----------------------------7--7--X-X-7--7---7---7---X---------8--8--X-X---|
G:----------------------------8--8--X-X-8--8---8---8---X---------9--9--X-X---|
D:----------------------------9--9--X-X-9--9---9---9---X---------9--9--X-X---|
A:----------------------------9--9--X-X-9--9---9---9---X---------7--7--X-X---|
E:----------------------------7--7--X-X-7--7---9---7---X---------X--X--X-X---|


you coul've take it on the tyro? , no you had to take on the si-i-ide."
                    
                           B                                 E
e:---7--7------------------7--7--X-X----7---7---7----X--X----7--7---X-X------|
B:---8--8------------------7--7--X-X----7---7---7----X--X----8--8---X-X------|
G:---9--9------------------8--8--X-X----8---8---8----X--X----9--9---X-X------|
D:---9--9------------------9--9--X-X----9---9---9----X--X----9--9---X-X------|
A:---7--7------------------9--9--X-X----9---9---9----X--X----7--7---X-X------|
E:-------------------------7--7--X-X----7---7---7----X--X----X--X---X-X------|



                         B                                      E 

" You always like it undercover, ducked down between your dirty sheets,"



Here i dont know what it says but this is where the change comes in.

Back to the intro riff. But let the chords ring out first time through except the E.

[ Tab from: http://www.guitartabs.cc/tabs/k/kings_of_leon/red_morning_light_tab.html ]
    B               A    G  F# E
    
e:--7----------x-5-----X-3--2--X-x-x-x-x-x-x-x-x----!
B:--7----------x-5-----X-3--2--X-x-x-x-x-x-x-x-x----!
G:--8----------x-6-----X-4--3--1-1-1-1-1-1-1-1-1----!
D:--9----------x-7-----X-5--4--2-2-2-2-2-2-2-2-2----!
A:--9----------x-7-----X-5--4--2-2-2-2-2-2-2-2-2----!
E:--7----------x-5-----X-3--2--0-0-0-0-0-0-0-0-0----!



plays again, not sure of words.
    B               A       G  F# E
    
e:--7-7-7-7-7-7-7-x-5-5-5-X-3--2--X-x-x-x-x-x-x-x-x----!
B:--7-7-7-7-7-7-7-x-5-5-5-X-3--2--X-x-x-x-x-x-x-x-x----!
G:--8-8-8-8-8-8-8-x-6-6-5-X-4--3--1-1-1-1-1-1-1-1-1----!
D:--9-9-9-9-9-9-9-x-7-7-6-X-5--4--2-2-2-2-2-2-2-2-2----!
A:--9-9-9-9-9-9-9-x-7-7-7-X-5--4--2-2-2-2-2-2-2-2-2----!
E:--7-7-7-7-7-7-7-x-5-5-5-X-3--2--0-0-0-0-0-0-0-0-0----!


"and in the black of the night to the red morning light"
    B               A       G  F# E
    
e:--7-7-7-7-7-7-7-x-5-5-5-X-3--2--X-x-x-x-x-x-x-x-x----!
B:--7-7-7-7-7-7-7-x-5-5-5-X-3--2--X-x-x-x-x-x-x-x-x----!
G:--8-8-8-8-8-8-8-x-6-6-5-X-4--3--1-1-1-1-1-1-1-1-1----!
D:--9-9-9-9-9-9-9-x-7-7-6-X-5--4--2-2-2-2-2-2-2-2-2----!
A:--9-9-9-9-9-9-9-x-7-7-7-X-5--4--2-2-2-2-2-2-2-2-2----!
E:--7-7-7-7-7-7-7-x-5-5-5-X-3--2--0-0-0-0-0-0-0-0-0----!

from here it just goes back to the verse riff.
Still dont know what they're saying. just listen to it though, it's very easy.

It just keeps using those two riffs untill there is a lead over the intro riff, then there is no guitar.
It comes back in like this,

"hey hey your giving all your silly love? away"  B            A

e:-----------------------------------------------7-7-7-7-7-7--5-5-5-5-5-5---|
B:-----------------------------------------------9-9-9-9-9-9--7-7-7-7-7-7---|
G:-----------------------------------------------9-9-9-9-9-9--7-7-7-7-7-7---|
D:-----------------------------------------------8-8-8-8-8-8--6-6-6-6-6-6---|
A:-----------------------------------------------7-7-7-7-7-7--5-5-5-5-5-5---|
E:-----------------------------------------------7-7-7-7-7-7--5-5-5-5-5-5---|


Then into intro riff.

    B               A       G  F# E
    
e:--7-7-7-7-7-7-7-x-5-5-5-X-3--2--X-x-x-x-x-x-x-x-x----!
B:--7-7-7-7-7-7-7-x-5-5-5-X-3--2--X-x-x-x-x-x-x-x-x----!
G:--8-8-8-8-8-8-8-x-6-6-5-X-4--3--1-1-1-1-1-1-1-1-1----!
D:--9-9-9-9-9-9-9-x-7-7-6-X-5--4--2-2-2-2-2-2-2-2-2----!
A:--9-9-9-9-9-9-9-x-7-7-7-X-5--4--2-2-2-2-2-2-2-2-2----!
E:--7-7-7-7-7-7-7-x-5-5-5-X-3--2--0-0-0-0-0-0-0-0-0----!


Play this through a heap of times unitll the end where the E rings out and that's it.
Just listen to the song, it's very easy.
Have fun with it, and tell all the friends about the "Kings", they are awesome!






















Comments