Kings Of Leon - Razz Chords & Tabs

 

Razz Chords & Tabs

Kings Of Leon Chords & Tabs

Version: 2 Type: Tab 0 ratings
1 star 2 stars 3 stars 4 stars 5 stars
comments

Razz Tab

   
---------------------------------------------------------------------------
Song:Razz
Artist:Kings of Leon
Album:A-Ha Shake Heartbreak
Tabber:Alexthebeatle, FROM SPAIN
---------------------------------------------------------------------------
 
-INTRO:
 bass riff:
|--------------------|---------------------|
|--------------------|---------------------|
|--------------------|---------------------|  X4
|--0--0--5--0--3--5--|--0--0--5--0--3--5---|

 then Caleb (guitar 1) plays the E chord all trough the intro.
(HE PLAYS IT ALL TROUGH THE VERSES AS WELL) 
You can play the E chord the normal way, it sounds very 
well,but I've seen the Rock in Rio concert video, 
and Caleb plays this strange chord, wich is something
like an E with some G,(only downstrokes):     
|-------
|-------
|--4----
|--5----
|--5----
|--0----

 guitar 2:(after Caleb)
|------------------------|----------------------|
|------------------------|----------------------|
|------------------------|----------------------|  X2
|------------------------|----------------------|
|------------------------|----------------------|
|--12s0--12--0--5--0--3--|--0--12--0--5--0--3---|


-VERSE:(the bass keeps playing the intro,
and remember to play the normal E or the
strange E, but always downstrokes):

E
Just like the girl is like a corner store 
E
Watch my view before you watch in my drawer 
E
Speak noodle less and I'm a soldier nothing and 
E
Lot of mercy shaking, falling through your hands 

-CHORUS:
 bass:
|--------------------|---------------------|
|--------------------|---------------------|
|--9-x-x-7-9--7-9-7--|--9-x-x-7-9--7-9-7---| X2
|--------------------|---------------------|

 guitar 1:
          razz the kid  
 F#  -  A   

 guitar 2:                   razz the kid
|-------------------------------|
|-------------------------------|
|--3----3--3-----3----3--3s6----|
|--4----4--4-----4----4--4s7----|
|--4----4--4-----4----4--4s7----|
|--2----0--2-----2----0--2s5----|


-VERSE 2 (SAME AS VERSE 1):

Because she love me I'm the chosen one 
These are the days we'll not be having no fun 
I listen back to what you told me before 
Just tell me where to come and knock down that door 

-CHORUS 2 (SAME AS CHORUS 1)

-BRIDGE (JUST AFTER SECOND CHORUS):
-bass:
|--------------------|---------------------|
|--------------------|---------------------|
|--9-9-9-9-9-9-9-9---|---------------------|  X4
|--------------------|--5-5-5-5--7-7-7-7---|
[ Tab from: http://www.guitartabs.cc/tabs/k/kings_of_leon/razz_tab_ver_2.html ]
-guitar 1:
   F#         A       B
|--2--------2s5-------7--------|
|--2--------2s5-------7--------|
|--3--------3s6-------8--------|  x4
|--4--------4s7-------9--------| 
|--4--------4s7-------9--------|
|--2--------2s5-------7--------|

-guitar 2(enters after guitar 1 plays two times the thing above):

  F#         A      B         F#          A        B
|--------------------------|---------------------------2------|
|--------------------------|------------------2----------2----|
|-------------2-2---4-4----|--------------------2--2s4--------|  
|--4--2-4-2-4-----2-----2--|--4--2-4-2-4--2s4-----------------|
|--------------------------|----------------------------------|
|--------------------------|----------------------------------|

-SOLO:
 guitar 1:
 F# - A - B  (X4)

 guitar 2:
    F#        A     B         F#                        A     B
|---22222222--5555--7777---|--12b14-14r12--12b14-14b12--5555--7777---|
|---22222222--5555--7777---|----------------------------5555--7777---|
|--------------------------|-----------------------------------------| 
|--------------------------|-----------------------------------------|
|--------------------------|-----------------------------------------|
|--------------------------|-----------------------------------------|

    F#        A     B         F#                             A     B
|---22222222--5555--7777---|-12b14-14r12--12b14-14-14-14b12--5555--7777--|
|---22222222--5555--7777---|---------------------------------5555--7777--|
|--------------------------|---------------------------------------------| 
|--------------------------|---------------------------------------------|
|--------------------------|---------------------------------------------|
|--------------------------|---------------------------------------------|


-EVERYTHING STOPS EXCEPT THE BASS:
|--------------------|---------------------|
|--------------------|---------------------|
|--9-x-x-7-9--7-9-7--|--9-x-x-7-9--7-9-7---| X2
|--------------------|---------------------|


 


.................the rest is about the same


---------------------------------------------------------------------------


 "something's growing that don't help me now...
 .......silly expectations of a dream....
  at least there's a record that I love to play"
  -ANTHONY CALEB FOLLOWILL
Comments