Kings Of Leon - Razz Chords & Tabs

 

Razz Chords & Tabs

Kings Of Leon Chords & Tabs

Version: 1 Type: Bass Tab 0 ratings
1 star 2 stars 3 stars 4 stars 5 stars
comments

Razz Bass Tab

---------------------------------------------------------------------------
Song:Razz
Artist:Kings of Leon
Album:A-Ha Shake Heartbreak
Tabber:Alexthebeatle
---------------------------------------------------------------------------

  Intro :
G -----------------|I
D --------7---5-7--|I
A 7---7-----7------|I
E -----------------|I
                     (4x)
Verse :
G -----------------|I
D --------7---5-7--|I
A 7---7-----7------|I
E -----------------|I
                    (12x)

Chorus
G -------9-----9-11----------9----9-11----|
D ----11----11------------11---11---------|
A -9-------------------9------------------|  X2
E ----------------------------------------|
[ Tab from: http://www.guitartabs.cc/tabs/k/kings_of_leon/razz_btab.html ]
Verse :
G -----------------|I
D --------7---5-7--|I
A 7---7-----7------|I
E -----------------|I
                    (12x)

Chorus
G -------9-----9-11---------9----9-11----|
D ----11----11-----------11---11---------|
A -9------------------9------------------|  X2
E ---------------------------------------|

Bridge
G ----------------I-----------------|I
D ----------------I-----------------|I
A 9-9-9-9-9-9-9-9-I-----------------|I
E ----------------I5-5-5-5-7-7-7-7--|I
                                     (8x)

Chorus
G -------9-----9-11----------9----9-11----|
D ----11----11------------11---11---------|
A -9-------------------9------------------|  X2
E ----------------------------------------|
Comments