Kings Of Leon - Pony Up Chords & Tabs

 

Pony Up Chords & Tabs

Kings Of Leon Chords & Tabs

Version: 2 Type: Tab

Pony Up Tab

   
-------------------------------------------------------------------------------
			     Pony Up - Kings of Leon
-------------------------------------------------------------------------------
Tabbed by:Imran Khalique
Email:thefallguy15@yahoo.com

Tuning:EADGBe

Effects: Slight delay and of course reverb. Boost mids and treble for twangyness :)

Intro: Guitar 1
e|-0------12------10-------------------------(0)---/12----10----------------|
B|----15-----0--------12--0--12-------10b12------------------12-------------|
G|--------------------------------------------------------------------------|
D|--------------------------------------------------------------------------|
A|--------------------------------------------------------------------------|
E|--------------------------------------------------------------------------|


e|-0------12------10-------------------------(0)--/10-----------------------|
B|----15-----0--------12--0--12-------10b12--------------12--10~~~~~~-------|
G|--------------------------------------------------------------------------|
D|--------------------------------------------------------------------------|
A|--------------------------------------------------------------------------|
E|--------------------------------------------------------------------------|

Intro: Guitar 2 - strum chords accordingly. HINT: listen to right headphone
e|--------------------------------------------------------------------------|
B|-10--------------5------3-------------------------------------------------|
G|-11--------------6------4-------------------------------------------------|
D|-12--------------7------5-------------------------------------------------|
A|-12--------------7------5-------------------------------------------------|
E|--------------------------------------------------------------------------|



Verse: listen to the left headphone for pattern
e|--X----X--X-X---X---X----X---X-X-----X--X-X-------------------------------|
B|--X----X--X-X---X---X----X---X-X-----X--X-X-------------------------------|
G|--X----X--X-X---X---X----X---X-X-----X--X-X-------------------------------|
D|--X----X--X-X---X---X----X---X-X-----X--X-X-------------------------------|
A|--5----5-------5----5----5---5-------5--5---------------------------------|
E|--------------------------------------------------------------------------|

[ Tab from: http://www.guitartabs.cc/tabs/k/kings_of_leon/pony_up_tab_ver_2.html ]
Next Part:            |pm            pm|
e|--------------------------------------------------------------------------|
B|--10-10--8-8--7-7---------------------------------------------------------|
G|-------------------7-7-7-7--9-9-7-7---------------------------------------|
D|--------------------------------------------------------------------------|
A|--------------------------------------------------------------------------|
E|--------------------------------------------------------------------------|

Intro: Guitar 1
e|-0------12------10-----------------------------/12----10------------------|
B|----15-----0--------12--0--12-------10b12--(0)-------------12-------------|
G|--------------------------------------------------------------------------|
D|--------------------------------------------------------------------------|
A|--------------------------------------------------------------------------|
E|--------------------------------------------------------------------------|


e|-0------12------10------------------------------/10-----------------------|
B|----15-----0--------12--0--12-------10b12--(0)---------12--10~~~~~~-------|
G|--------------------------------------------------------------------------|
D|--------------------------------------------------------------------------|
A|--------------------------------------------------------------------------|
E|--------------------------------------------------------------------------|

outro: listen for variatiom
e|-0------12------10------------------7-------10-------------------------------|
B|----15-----0--------12--0--12-------10b12---12b15----------------------------|
G|-----------------------------------------------------------------------------|
D|-----------------------------------------------------------------------------|
A|-----------------------------------------------------------------------------|
E|-----------------------------------------------------------------------------|

Thats pretty much it. This is 95% accurate I believe.  I listened to it over and over 
and even slowed it down.
But im not perfect so feel free to make any suggestions

If you liked this self transcribed tablature, then please visit my youtube page. it 
could use your views.
Paste http://www.youtube.com/user/milkeatscereal into your browser. Thanks


************************************

| /   slide up
| \   slide down
| h   hammer-on
| p   pull-off
| ~   vibrato
| +   harmonic
| x   Mute note
| b   Bend
| pb  Pre-bend
| br  Bend release
| pbr Pre-bend release
| brb Bend release bend

************************************