Kings Of Leon - Pistol Of Fire Chords & Tabs

 

Pistol Of Fire Chords & Tabs

Kings Of Leon Chords & Tabs

Version: 2 Type: Tab 0 ratings
1 star 2 stars 3 stars 4 stars 5 stars
comments

Pistol Of Fire Tab

-------------------------------------------------------------------------
Song:Pistol of Fire
Artist:Kings of Leon
Album:A-Ha Shake Heartbrake
Tabber:Alexthebeatle
-------------------------------------------------------------------------


INTRO:
|------------------------------------------------|
|------------------------------------------------|
|------------------------------------------------|
|-----14--14--14--14-----7--7-----5--5-----------|
|-----14--14--14--14-----7--7-----5--5-----------|
|--0--12--12--12--12--0--5--5--0--3--3-----------|

|------------------------------------------------|
|------------------------------------------------|
|------------------------------------------------|
|-----14--14--14--14-----7--7-----5--------------|
|-----14--14--14--14-----7--7-----5--------------|
|--0--12--12--12--12--0--5--5--0--3--------------|
                                     everything stops and then:


 VERSE:
|-----------------------------------------------------------------------|
|-----------------------------------------------------------------------|
|-----------------------------------------------------------------------|
|-----14--14--14--14--14--14--14-----7--7--7--7--5--5--5--5-------------|
|-----14--14--14--14--14--14--14-----7--7--7--7--5--5--5--5-------------|
|--0--12---0--12--0---12---0--12--0--5--0--5--0--3--0--3--0-------------|

|-----------------------------------------------------------------------|
|-----------------------------------------------------------------------|
|-----------------------------------------------------------------------|
|-----14--14--14--14--14--14--14-----7--7--7--5-------------------------|
|-----14--14--14--14--14--14--14-----7--7--7--5-------------------------|
|--0--12---0--12--0---12---0--12--0--5--0--5--3-------------------------|

   Pistol    of    fire           Pistol    of    Fire
|-----------------------------------------------------------------------|
|-----------------------------------------------------------------------|
|-----------------------------------------------------------------------|
|-----14--14--14--14--14--14--14-----7--7--7--7--5--5--5--5-------------|
|-----14--14--14--14--14--14--14-----7--7--7--7--5--5--5--5-------------|
|--0--12---0--12--0---12---0--12--0--5--0--5--0--3--0--3--0-------------|

   Pistol    of    fire . . .
|-----------------------------------------------------------------------|
|-----------------------------------------------------------------------|
|-----------------------------------------------------------------------|
|-----14--14--14--14--14--14--14-----7--7--7--7--5--5--5--5-------------|
|-----14--14--14--14--14--14--14-----7--7--7--7--5--5--5--5-------------|
|--0--12---0--12--0---12---0--12--0--5--0--5--0--3--0--3--0-------------|

[ Tab from: http://www.guitartabs.cc/tabs/k/kings_of_leon/pistol_of_fire_tab_ver_2.html ]
   Pistol    of    fire           Pistol    of    Fire
|-----------------------------------------------------------------------|
|-----------------------------------------------------------------------|
|-----------------------------------------------------------------------|
|-----14--14--14--14--14--14--14-----7--7--7--7--5--5--5--5-------------|
|-----14--14--14--14--14--14--14-----7--7--7--7--5--5--5--5-------------|
|--0--12---0--12--0---12---0--12--0--5--0--5--0--3--0--3--0-------------|

   Pistol    of    fire . . .
|-----------------------------------------------------------------------|
|-----------------------------------------------------------------------|
|-----------------------------------------------------------------------|
|-----14--14--14--14--14--14--14-----7--7--7--7--5--5--5--5-------------|
|-----14--14--14--14--14--14--14-----7--7--7--7--5--5--5--5-------------|
|--0--12---0--12--0---12---0--12--0--5--0--5--0--3--0--3--0-------------|


   Aaaarghhhhhhhh.....
|-----------------------------------------------------------------------|
|-----------------------------------------------------------------------|
|-----------------------------------------------------------------------|
|-----14--14--14--14--14--14--14-----7--7--7--7--5--5--5--5-------------|
|-----14--14--14--14--14--14--14-----7--7--7--7--5--5--5--5-------------|
|--0--12---0--12--0---12---0--12--0--5--0--5--0--3--0--3--0-------------|

  Aaaarghhhhhhhhh.....
|-----------------------------------------------------------------------|
|-----------------------------------------------------------------------|
|-----------------------------------------------------------------------|
|-----14--14--14--14--14--14--14-----7--7--7--7--5--5--5--5-------------|
|-----14--14--14--14--14--14--14-----7--7--7--7--5--5--5--5-------------|
|--0--12---0--12--0---12---0--12--0--5--0--5--0--3--0--3--0-------------|

 SOLO:
|-----------------------------------------------------------------------|
|-----------------------------------------------------------------------|
|-----------------------------------------------------------------------|
|-----14--14--14--14--14--14--14-----7--7--7--7--5--5--5--5-------------|
|-----14--14--14--14--14--14--14-----7--7--7--7--5--5--5--5-------------|
|--0--12---0--12--0---12---0--12--0--5--0--5--0--3--0--3--0-------------|

|-----------------------------------------------------------------------|
|-----------------------------------------------------------------------|
|-----------------------------------------------------------------------|
|-----14--14--14--14--14--14--14-----7--7--7--7--5--5--5--5-------------|
|-----14--14--14--14--14--14--14-----7--7--7--7--5--5--5--5-------------|
|--0--12---0--12--0---12---0--12--0--5--0--5--0--3--0--3--0-------------|

 ....the rest is just the same except for the lyrics.
 listen to A-ha Shake Heartbreak man, it changed my life.
 GOD SAVE the KINGS OF LEON.
Comments