Kings Of Leon - Mollys Chambers Chords & Tabs

 

Mollys Chambers Chords & Tabs

Kings Of Leon Chords & Tabs

Version: 2 Type: Tab 0 ratings
1 star 2 stars 3 stars 4 stars 5 stars
comments

Mollys Chambers Tab

-----------------------------------------------------------------------------
                     Kings of leon:Mollys chamber
-----------------------------------------------------------------------------
Tabbed by:Nath

This is the first whole song tab i've done on my own. 

Intro & verse (Guitar 1 and 2)
e--------------------------------------------------------|
B--------------------------------------------------------|
G-3------------3------------3------------3---------------|
D-4--4-4-4-4-4-4--4-4-4-4-4-4--4-4-4-4-4-4--4-4-4-4-4----|X6
A-4--4-4-4-4-4-4--4-4-4-4-4-4--4-4-4-4-4-4--4-4-4-4-4----|
E-2--0-2-0-2-0-2--0-2-0-2-0-2--0-2-0-2-0-2--0-2-0-2-0----|

Chorus
e----------------------------------------------------------------------------|
B----------------------------------------------------------------------------|
G----------------------------------------------------------------------------|
D-9--9--9-9-9-9-7--7--7-7-7-7-4--4-4-4-4-4-4--4-4-4-4-4-9--9--9-9-9-9-12--12-|
A-9--9--9-9-9-9-7--7--7-7-7-7-4--4-4-4-4-4-4--4-4-4-4-4-9--9--9-9-9-9-12--12-|
E-7--7--7-7-7-7-5--5--5-5-5-5-2--0-2-0-2-0-2--0-2-0-2-0-7--7--7-7-7-7-10--10-|
[ Tab from: http://www.guitartabs.cc/tabs/k/kings_of_leon/mollys_chambers_tab_ver_2.html ]
e----------------------------------------------------------------------------|
B----------------------------------------------------------------------------|
G----------------------------------------------------------------------------|
D-12-12-12-12----------------------------------------------------------------|
A-12-12-12-12----------------------------------------------------------------|
E-10-10-10-10----------------------------------------------------------------|
Verse (Guitar 1)
e------------------------------------------------------|
B------------------------------------------------------|
G------------------------------------------------------|
D-4--4-4-4-4-4-4--4-4-4-4-4-4--4-4-4-4-4-4--4-4-4-4-4--|X5
A-4--4-4-4-4-4-4--4-4-4-4-4-4--4-4-4-4-4-4--4-4-4-4-4--|
E-2--0-2-0-2-0-2--0-2-0-2-0-2--0-2-0-2-0-2--0-2-0-2-0--|

Guitar 2
e---------------------------------------------------------|
B-------------7------5--7--5--7--5---7--------------------|
G-------------6------6--6--6--6--6---6--------------------|X5
D---------------------------------------------------------|
A---------------------------------------------------------|
E---------------------------------------------------------|

Play the chorus again

Solo
e-12b14-12b14-12b14-12b14--12b14p12-9-----------------------12------12-------|
B--------------------------------------12b14p12-10-10-10-12-13b14-14---------|
G----------------------------------------------------------------------------|
D----------------------------------------------------------------------------|
A----------------------------------------------------------------------------|
E----------------------------------------------------------------------------|

e-12----------12-------------------------------------------------------------|
B-13b14p13----13b14-4/----------4/----------4/-4/-2---2-4-4/-4/-4-4-4-4--4---|
G----------14-------4/-\2---2-4-4/-\2---2-4-4/-4/---4-----4/-4/-4-4-4-4--4---|
D-------------------------4-----------4--------------------------------------|
A----------------------------------------------------------------------------|
E----------------------------------------------------------------------------|

play the chorus till the end
Comments