Kings Of Leon - Mollys Chambers Chords & Tabs

 

Mollys Chambers Chords & Tabs

Kings Of Leon Chords & Tabs

Version: 1 Type: Tab 0 ratings
1 star 2 stars 3 stars 4 stars 5 stars
comments

Mollys Chambers Tab

-----------------------------------------------------------------------------
                      KINGS OF LEON - MOLLY'S CHAMBERS
-----------------------------------------------------------------------------

tabbed by: stellar_legs
e-mail: uncle_stellar@hotmail.com
tuning: standard

Ok, this tab needs an explanation: Over the course of tabbing this song, I ran
into some problems with the solo at the end. I just couldn't nail it. So here's
what I cooked up. The solo starts of very familiar to the one in the song, but
I've kind of altered it using one of my own that I thought fit the context of the
song. It sounds really great to me, and it's fairly simple. It might be correct,
hell I don't know, but here it is.

Verse
e------------------------------------2~--0-2-0-2-0--2~--0-2-0-2-0--|
B------------------------------------2~--0-2-0-2-0--2~--0-2-0-2-0--|
G--3-----3---3-----3-----3---3---3---------------------------------|
D--4---4-4-4-4-4---4---4-4-4-4-4-4---------------------------------|
A--4---4-4-4-4-4---4---4-4-4-4-4-4---------------------------------|
E--2~--0-2-0-2-0---2~--0-2-0-2-0-2---------------------------------|
 "Free, that's all that she could bleed...."


Chorus
[ Tab from: http://www.guitartabs.cc/tabs/k/kings_of_leon/mollys_chambers_tab.html ]
There's 2 approaches to this....
e----------------------------2--0-2-0-2-0--2--0-2-0-2-0---|
B--4-4-4-4----7-7-7-7--------2--0-2-0-2-0--2--0-2-0-2-0---|
G--4-4-4-4----7-7-7-7-------------------------------------|
D--4-4-4-4----7-7-7-7-------------------------------------|
A--2-2-2-2----5-5-5-5-------------------------------------|
E---------------------------------------------------------|

or.... (the way I prefer)

e---------------------------(and all that 2nd fret goodness)--|
B-------------------------------------------------------------|
G--8-8-8-8---11-11-11-11--------------------------------------|
D--x-x-x-x----x--x--x--x--------------------------------------|
A--9-9-9-9---12-12-12-12--------------------------------------|
E--7-7-7-7---10-10-10-10--------------------------------------|

Solo (or my vision of it anyway)
e--14^-14^-14^-14^---14^-14p12-----------------------------------|
B-----------------------------14p12------------------10--12-12^--|
G-----------------------------------14-14^--11--9/11-------------|
D----------------------------------------------------------------|
A----------------------------------------------------------------|
E----------------------------------------------------------------|

e------12------12------12------12--------17^^--17p14----------------------|
B--14^-----14^-----14^-----14^-----14~--------------17p14-----------------|
G----------------------------------------------------------16^-16-16--14--|
D-------------------------------------------------------------------------|
A-------------------------------------------------------------------------|
E-------------------------------------------------------------------------|

e----------------------------------|
B-----17-----17-----17-----17------|
G--18-----18-----18-----18----18~--|
D----------------------------------|
A----------------------------------|
E----------------------------------|

Fin.
Comments