Kings Of Leon - Mollys Chambers Chords & Tabs

 

Mollys Chambers Chords & Tabs

Kings Of Leon Chords & Tabs

Version: 2 Type: Bass Tab 0 ratings
1 star 2 stars 3 stars 4 stars 5 stars
comments

Mollys Chambers Bass Tab

   
Song: Molly's Chambers
Artist: Kings Of Leon
Album: Youth And Young Manhood

An absolutely rip-roaring song from the one and only Kings Of Leon with a great fun and
very steady bassline. In a band with one guitarist, the bass does a lot of the support
on this song so it's important to have your timing nailed, especially during the guitar
solo. This is a piss easy song to play but it's dangerously catchy and surprisingly,
there are no accurate tabs!

Tuning: G D A E
Time Signature: 4/4

Intro

|---------------||---------------||---------------||---------------|
|---------------||---------------||---------------||---------------|
|---------------||---------------||---------------||---------------|
|-2-2-0-2-0-2-0-||-2-2-0-2-0-2-0-||-2-2-0-2-0-2-0-||-2-2-0-2-0-2-0-|

|---------------||---------------||---------------||---------------|
|---------------||---------------||---------------||---------------|
|---------------||---------------||---------------||---------------|
|-2-2-0-2-0-2-0-||-2-2-0-2-0-2-0-||-2-2-0-2-0-2-0-||-2-2-0-2-0-2-0-|

Verse

"Free, thats all that she can be..."

|---------------||---------------||---------------||---------------|
|---------------||---------------||---------------||---------------|
|---------------||---------------||---------------||---------------|
|-2-2-0-2-0-2-0-||-2-2-0-2-0-2-0-||-2-2-0-2-0-2-0-||-2-2-0-2-0-2-0-|

|---------------||---------------||---------------||---------------|
|---------------||---------------||---------------||---------------|
|---------------||---------------||---------------||---------------|
|-2-2-0-2-0-2-0-||-2-2-0-2-0-2-0-||-2-2-0-2-0-2-0-||-2-2-0-2-0-2-0-|

|---------------||---------------||---------------||---------------|
|---------------||---------------||---------------||---------------|
|---------------||---------------||---------------||---------------|
|-2-2-0-2-0-2-0-||-2-2-0-2-0-2-0-||-2-2-0-2-0-2-0-||-2-2-0-2-0-2-0-|

|---------------||---------------||---------------||---------------|
|---------------||---------------||---------------||---------------|
|---------------||---------------||---------------||---------------|
|-2-2-0-2-0-2-0-||-2-2-0-2-0-2-0-||-2-2-0-2-0-2-0-||-2-2-0-2-0-2-0-|

Chorus

"You want it?     She's got it!    Molly Chambers gonna change..."

|---------------||---------------||---------------||---------------|
|---------------||---------------||---------------||---------------|
|---------------||---------------||---------------||---------------|
|--7--7--7--7---||--5--5--5--5---||-2-2-0-2-0-2-0-||-2-2-0-2-0-2-0-|

"She's got your?   Your pistol!    Molly Chambers gonna change..."

|---------------||---------------||---------------||---------------|
|---------------||---------------||---------------||---------------|
|---------------||---------------||---------------||---------------|
|--7--7--7--7---||--5--5--5--5---||-2-2-0-2-0-2-0-||-2-2-0-2-0-2-0-|

Verse

"Slow, she's bruning in your soul..."

|---------------||---------------||---------------||---------------|
|---------------||---------------||---------------||---------------|
|---------------||---------------||---------------||---------------|
|-2-2-0-2-0-2-0-||-2-2-0-2-0-2-0-||-2-2-0-2-0-2-0-||-2-2-0-2-0-2-0-|
[ Tab from: http://www.guitartabs.cc/tabs/k/kings_of_leon/mollys_chambers_btab_ver_2.html ]
|---------------||---------------||---------------||---------------|
|---------------||---------------||---------------||---------------|
|---------------||---------------||---------------||---------------|
|-2-2-0-2-0-2-0-||-2-2-0-2-0-2-0-||-2-2-0-2-0-2-0-||-2-2-0-2-0-2-0-|

|---------------||---------------||---------------||---------------|
|---------------||---------------||---------------||---------------|
|---------------||---------------||---------------||---------------|
|-2-2-0-2-0-2-0-||-2-2-0-2-0-2-0-||-2-2-0-2-0-2-0-||-2-2-0-2-0-2-0-|

|---------------||---------------||---------------||---------------|
|---------------||---------------||---------------||---------------|
|---------------||---------------||---------------||---------------|
|-2-2-0-2-0-2-0-||-2-2-0-2-0-2-0-||-2-2-0-2-0-2-0-||-2-2-0-2-0-2-0-|

Chorus

"You want it?     She's got it!    Molly Chambers gonna change..."

|---------------||---------------||---------------||---------------|
|---------------||---------------||---------------||---------------|
|---------------||---------------||---------------||---------------|
|--7--7--7--7---||--5--5--5--5---||-2-2-0-2-0-2-0-||-2-2-0-2-0-2-0-|

"She's got your?   Your pistol!    Molly Chambers gonna change..."

|---------------||---------------||---------------||---------------|
|---------------||---------------||---------------||---------------|
|---------------||---------------||---------------||---------------|
|--7--7--7--7---||--5--5--5--5---||-2-2-0-2-0-2-0-||-2-2-0-2-0-2-0-|

"Molly Chambers gonna change..."

|---------------||---------------||
|---------------||---------------||
|---------------||---------------||
|-2-2-0-2-0-2-0-||-2-2-0-2-0-2-0-||

Solo

|---------------||---------------||---------------||---------------||
|---------------||---------------||---------------||---------------||
|---------------||---------------||---------------||---------------||
|--7--7--7--7---||--5--5--5--5---||-2-2-0-2-0-2-0-||-2-2-0-2-0-2-0-||

|---------------||---------------||---------------||---------------||
|---------------||---------------||---------------||---------------||
|---------------||---------------||---------------||---------------||
|--7--7--7--7---||--5--5--5--5---||-2-2-0-2-0-2-0-||-2-2-0-2-0-2-0-||

Chorus (Outro)

"You want it?     She's got it!    Molly Chambers gonna change..."

|---------------||---------------||---------------||---------------|
|---------------||---------------||---------------||---------------|
|---------------||---------------||---------------||---------------|
|--7------------||--5------------||-2-2-0-2-0-2-0-||-2-2-0-2-0-2-0-|

"She's got your?   Your pistol!    Molly Chambers gonna change..."

|---------------||---------------||---------------||---------------|
|---------------||---------------||---------------||---------------|
|---------------||---------------||---------------||---------------|
|--7--7--7--7---||--5--5--5--5---||-2-2-0-2-0-2-0-||-2-2-0-2-0-2-0-|

"You want it?     She's got it!    Molly Chambers gonna change..."

|---------------||---------------||---------------||---------------|
|---------------||---------------||---------------||---------------|
|---------------||---------------||---------------||---------------|
|--7--7--7--7---||--5--5--5--5---||-2-2-0-2-0-2-0-||-2-2-0-2-0-2-0-|

|---------------||-------------------||
|---------------||-------------------||
|---------------||-------------------||
|--7--7--7--7---||-10-10-10-10-10-10-||
Comments