Kings Of Leon - Mary Chords & Tabs

 

Mary Chords & Tabs

Kings Of Leon Chords & Tabs

Version: 1 Type: Bass Tab

Mary Bass Tab

   
G|-------------------------|
D|--16/21--18-16-18--------|
A|-------------------------|
E|-------------------------|


G|---------------------------------------------------------------|
D|---------------------------------------------------------------|
A|--------11-11-11-9-9-9-11-11-11---------11-11-11-9-9-9-11-9----|
E|-7-7-7---------------------------7-7-7----------------------11-|


G|------------------------------------------------------------------------------|
D|------------------------------------------------------------------------------|
A|-----------16-16-16-14-14-14-16-16-16------------18-18-18-16-16-16------------|
E|-12-12-12------------------------------14-14-14---------------------2-/7------|


G|------------------------------------------------------------------------------|
D|------------------------------------------------------------------------------|
A|------------------------------------------------------------------------------|
E|-7-7--7-7--7-7--7-7--7-7--7-7--7-7--7/12--0--0-0--0-0--0-0--0--2--------------|

G|------------------------------------------------------------------------------|
D|------------------------------------------------------------------------------|
A|------------------------------------------------------------------------------|
E|-2-2--2-2--2-2--2/7-----------------------------------------------------------|

G|------------------------------------------------------------------------------|
D|------------------------------------------------------------------------------|
A|------------------------------------------------------------------------------|
E|-7-7--7-7--7-7--7-7--7-7--7-7--7-7--7/12--0--0-0--0-0--0-0--0--2--------------|

G|------------------------------------------------------------------------------|
D|------------------------------------------------------------------------------|
A|------------------------------------------------------------------------------|
E|-2-2--2-2--2-2--2-------------------------------------------------------------|


G|-------------------------------------------------------------------------------|
D|--------------------------------------------9------------9-------------9-------|
A|--6-6-6-6--6-6-6-6--6-6-6-6--6-6-6-6------------9------------9-------------9---|
E|--------------------------------------7-7-7---7----7-7-7---7----7-7-7---7------|

G|----------------------------------------------------------------------------|
D|----9-------9---------------------------------------------------------------|
A|--------9------6-6-6-6--6-6-6-6--6-6-6-6--6-6-6-6-6\------------------------|
E|--7---7---7-----------------------------------------------------------------|

G|------------------------------------|
D|--------4-------------4-------------|
A|------------4-------------4---------|
E|-2-2-2----2----2-2-2----2---2-------|

G|-------------------------------------------------------------------------------|
D|--16/21--18-16-18-16---------16/21--18-16-18-16------16/21--18-16-18-----------|
A|---------------------18-------------------------18-----------------------------|
E|-------------------------------------------------------------------------------|


G|-------------------------------------------------------------------------------|
D|-18-18-18-18-18-18-18-18-18--21-18-16--21-21-21-21-21-21-21-21-21-21\----------|
A|------------------------------------------------------------------21\----------|
E|-------------------------------------------------------------------------------|


G|-------------------------------------------------------------------------------|
D|-------------------------------------------------------------------------------|
A|-------------------------------------------------------------------------------|
E|-7-7-7-7-7-7-7-7-7-7-7-7-7-7-7-7-7-7-7-7-7-7-7-7-7/12--0-0-0-0-0-0-0-0-0-0-0-0-|

G|-------------------------|
D|-------------------------|
A|-------------------------|
E|-2-2-2-2-2-2-2-2-2-2-2-2-|


G|------------------------------------------------------------------------------------------|
D|-------------------------------------------------------------------------------------------|
A|-------------------------------------------------------------------------------------------|
E|-7-7-7-7-7-7-7-7-7-7-7-7-7-7-7-7-7-7-7-7-7-7-7-7-7/12--12-12-12-12-12-12-12-12-12-12-12-12-|

G|-------------------------|
D|-------------------------|
A|-------------------------|
E|-2-2-2-2-2-2-2-2-2-2-2-2-|

[ Tab from: http://www.guitartabs.cc/tabs/k/kings_of_leon/mary_btab.html ]
G|-------------------------------------------------------------------------------|
D|--------------------------------------------9------------9-------------9-------|
A|--6-6-6-6--6-6-6-6--6-6-6-6--6-6-6-6------------9------------9-------------9---|
E|--------------------------------------7-7-7---7----7-7-7---7----7-7-7---7------|

G|----------------------------------------------------------------------------|
D|----9-------9---------------------------------------------------------------|
A|--------9------6-6-6-6--6-6-6-6--6-6-6-6--6-6-6-6-6\------------------------|
E|--7---7---7-----------------------------------------------------------------|

G|------------------------------------|
D|--------4-------------4-------------|
A|------------4-------------4---------|
E|-2-2-2----2----2-2-2----2---2-------|

G|------------------------------------|
D|---4/9p7----------------------------|
A|----------7-9p7\4-------------------|
E|------------------------------------|

G|-------------------------------------------------------------------------------|
D|-------------------------------------------------------------------------------|
A|-------------------------------------------------------------------------------|
E|-7-7-7-7-7-7-7-7-7-7-7-7-7-7-7-7-7-7-7-7-7-7-7-7-7/12--0-0-0-0-0-0-0-0-0-0-0-0-|

G|--------------------------|
D|--------------------------|
A|--------------------------|
E|-2-2-2-2-2-2-2-2-2-2-2-2/-|


G|------------------------------------------------------------------------------|
D|------------------------------------------------------------------------------|
A|------------------------------------------------------------------------------|
E|-7--7-7--7-7--7-7--7-7--7-7--7-7--7-7-7--0--0-0--0-0--0-0--5-7p5--2-----------|

G|--------------------------|
D|--------------------------|
A|--------------------------|
E|-2-2--2-2--2-2/-----------|


G|-------------------------------------------------------------------------------|
D|--------------------------------------------9------------9-------------9-------|
A|--6-6-6-6--6-6-6-6--6-6-6-6--6-6-6-6------------9------------9-------------9---|
E|--------------------------------------7-7-7---7----7-7-7---7----7-7-7---7------|

G|----------------------------------------------------------------------------|
D|----9-------9---------------------------------------------------------------|
A|--------9------6-6-6-6--6-6-6-6--6-6-6-6--6-6-6-6-6\------------------------|
E|--7---7---7-----------------------------------------------------------------|

G|------------------------------------|
D|--------4-------------4-------------|
A|------------4-------------4---------|
E|-2-2-2----2----2-2-2----2---2-------|

G|-------------------------|
D|--16/21--18-16-18--------|
A|-------------------------|
E|-------------------------|

G|---------------------------------------------------------------------------------|
D|---------------------------------------------------------------------------------|
A|--------11-11-11-9-9-9-11-11-11---------11-11-11-9-9-9-11-9----------------------|
E|-7-7-7---------------------------7-7-7----------------------11-------------------|

G|---------------------------------------------------------------------------------|
D|---------------------------------------------------------------------------------|
A|-----------16-16-16-14-14-14-16-16-16------------18-18-18-16-16-16-14-14-14------|
E|-12-12-12------------------------------14-14-14----------------------------------|

G|---------------------------------------------------------------------------------|
D|---------------------------------------------------------------------------------|
A|--------11-11-11-9-9-9-11-11-11---------11-11-11-9-9-9-11-9----------------------|
E|-7-7-7---------------------------7-7-7----------------------11-------------------|

G|---------------------------------------------------------------------------------|
D|---------------------------------------------------------------------------------|
A|-----------16-16-16-14-14-14-16-16-16------------18-18-18-16-16-16-14-14---------|
E|-12-12-12------------------------------14-14-14----------------------------------|

G|---------------------------------------------------------------------------------|
D|------------------------------------------------------------14-------------------|
A|--------11-11-11-9--9-11-11-11---------11-11-11-9-9-9-11/16----14----------------|
E|-7-7-7---------------------------7-7-7-------------------------------------------|

G|---------------------------------------------|
D|---------------------------------------------|
A|-----------16-16-16-14-14-14-16-16-16--------|
E|-12-12-12------------------------------14\---|