Kings Of Leon - Manhattan Chords & Tabs

 

Manhattan Chords & Tabs

Kings Of Leon Chords & Tabs

Version: 4 Type: Bass Tab 0 ratings
1 star 2 stars 3 stars 4 stars 5 stars
comments

Manhattan Bass Tab

Manhattan Bass TabŪ

@wrennaboy

x8
G|-----------16----16----|
D|--18---18----18--------|
A|-----0-----------------|
E|-----------------------|

G|------------------------------------|
D|------------------------------------|
A|--7(x2)----------7(x2)--------------|
E|----------5(x2)----------5(x2)------|

x2
G|-----6/16-14-13/6--------|
D|-------------------------|
A|-------------------------|
E|--0----------------------|

x2
G|-----6/16-14-13/6--------|
D|-------------------------|
A|-0-----------------------|
E|-------------------------|

x2
G|-----6/16-14-13/6--------|
D|-------------------------|
A|-------------------------|
E|--0----------------------|

x2
G|-----6/16-14-13/6--------|
D|-------------------------|
A|-0-----------------------|
E|-------------------------|

x8
G|-----------16----16----|
D|--18---18----18--------|
A|-----0-----------------|
E|-----------------------|

x2
G|-----6/16-14-13/6--------|
D|-------------------------|
A|-------------------------|
E|--0----------------------|

x2
G|-----6/16-14-13/6--------|
D|-------------------------|
A|-0-----------------------|
E|-------------------------|

x2
G|-----6/16-14-13/6--------|
D|-------------------------|
A|-------------------------|
E|--0----------------------|

x2
G|-----6/16-14-13/6--------|
D|-------------------------|
A|-0-----------------------|
E|-------------------------|
[ Tab from: http://www.guitartabs.cc/tabs/k/kings_of_leon/manhattan_btab_ver_4.html ]
G|------------------------------------|
D|------------------------------------|
A|--7(x2)----------7(x2)--------------|
E|----------5-9-7---------5-9-7-------|

x8
G|-----------16----16----|
D|--18---18----18--------|
A|-----0-----------------|
E|-----------------------|

x2
G|-----6/16-14-13/6--------|
D|-------------------------|
A|-------------------------|
E|--0----------------------|

x2
G|-----6/16-14-13/6--------|
D|-------------------------|
A|-0-----------------------|
E|-------------------------|

x2
G|-----6/16-14-13/6--------|
D|-------------------------|
A|-------------------------|
E|--0----------------------|

x2
G|-----6/16-14-13/6--------|
D|-------------------------|
A|-0-----------------------|
E|-------------------------|

x2
G|------------------------------------|
D|---------10(x2)-11-10-11-10---------|
A|-----11-----------------------------|
E|--9--------------------------9/-----|

G|-------------------10-11-10---------|
D|--------10(x2)-11-------------------|
A|-----11-----------------------------|
E|--9--------------------------9/-----|

G|------------------------------------|
D|---------10(x2)-11-10-11-10---------|
A|-----11-----------------------------|
E|--9--------------------------9/-----|

G|------------------------------------|
D|------------------------------------|
A|--7(x2)----------7(x2)--------------|
E|----------5-9-7---------5-9-7-------|

Keep playing as music fades...
G|-----------16----16----|
D|--18---18----18--------|
A|-----0-----------------|
E|-----------------------|
Comments