Kings Of Leon - Four Kicks Chords & Tabs

 

Four Kicks Chords & Tabs

Kings Of Leon Chords & Tabs

Version: 1 Type: Bass Tab 0 ratings
1 star 2 stars 3 stars 4 stars 5 stars
comments

Four Kicks Bass Tab

-----------------------------------------------------------------------------
			     Four Kicks-kings of leon
-----------------------------------------------------------------------------

Tabbed By : bills

Tuning: standard- EADG
guitar first then
intro *2 0.05 0.46
G|---------------------------------------------------------------------------|
D|---------------------------------------------------------------------------|
A|---------------------------------------------------------------------------|
E|--0-0-3-0-0-0-3-0-0-0-3-0-0-0-3-0-0-0-3-0-0-3-0-/10-10-10-/10-10-10--12----|
theres a slight bend on the 3's here
[ Tab from: http://www.guitartabs.cc/tabs/k/kings_of_leon/four_kicks_btab.html ]
verse *30.11  0.57
G|---------------------------------------------------------------------------|
D|---------------------------------------------------------------------------|
A|---------------------------------------------------------------------------|
E|-0-0-3-0-0-0-3-0-0-0-3-0-0-0-3-0-/-10~-------------------------------------|
bend these 3's
pre chorus 0.31 1.16
G|---------------------------------------------------------------------------|
D|-------------------------------------/15~----------------------------------|
A|-------------------------------/8~-----------------------------------------|
E|-0-0-3-0-0-0-3-0-0-0-3-0-0-3-0---------------------------------------------|

chorus 0.39 1.25
G|----------------------------------------------------------------------------|
D|-------/15~-----------------------------------------------------------------|
A|-8~-------------------------------------------------------------------------|
E|----------------------------------------------------------------------------|

repeat all
guitar solo 1.31
main riff*4
outro 1.53
 chorus *2

thats it, dont forget the bends on the 3's
theres a few fills missing and the chorus isnt 100% but this sounds fine
| \  slide down
| ~  vibrato
| ^  Bend note
=============================================================================
Comments