Kings Of Leon - Bucket Chords & Tabs

 

Bucket Chords & Tabs

Kings Of Leon Chords & Tabs

Version: 1 Type: Tab 0 ratings
1 star 2 stars 3 stars 4 stars 5 stars
comments

Bucket Tab

   
Intro

   12x           12x             12x         12x 
    
|--14------------9----------|----7-----------7----------|
|--15------------10---------|----8-----------8----------|
|--14------------9----------|----7-----------7----------|
|---------------------------|---------------------------|
|---------------------------|---------------------------|
|---------------------------|---------------------------|


solo

|--7-5--5---7-5--5---7-5----|---------------------------|
|-----7---------7--------7--|--7-5--5---7-5--5---7-5----|
|---------------------------|-----7---------7--------7--|
|---------------------------|---------------------------|
|---------------------------|---------------------------|
|---------------------------|---------------------------|



|---------------------------|---------------------------|
|--5-3--3---5-3--5---5-3----|--5-3--3---5-3--5---5-3----|
|-----5---------5--------5--|-----5---------5--------5--|
|---------------------------|---------------------------|
|---------------------------|---------------------------|
|---------------------------|---------------------------|

VERSE:

D           
I'll be the one to show you the way

A
You'll be the one to always complain

G
3 in the morning come a bang bang bang

G
All out of fags and I just can't wait

D          
Cancel the thing that I said I'd do

A
I don't feel comfortable talking to you

G
(Un)less you got the zipper fixed on my shoe

G
Then I'll be in the lobby drinking for two


Chorus:

Em        A         
Eighteen  Balding   

   D
   Star
|--14---------14------------|---14----------14----------|
|----15---------15----------|-----15----------15--------|
|------14--------14---------|-------14----------14------|
|---------------------------|---------------------------|
|---------------------------|---------------------------|
|---------------------------|---------------------------|

Em        A         
Golden    Falling
[ Tab from: http://www.guitartabs.cc/tabs/k/kings_of_leon/bucket_tab.html ]
   D
   Hard
|--14---------14------------|---14----------14----------|
|----15---------15----------|-----15----------15--------|
|------14--------14---------|-------14----------14------|
|---------------------------|---------------------------|
|---------------------------|---------------------------|
|---------------------------|---------------------------|


Verse:

D           
Look at the shakies what's with the blush?

A
fresh off the plane in my fuzzy rush

G
Everyone's gathered to idolize me

G
I hate the way you talk, your japanese scream

D 
It's been too long since i've left the shed

A
You kick the bucket, I'll swing my legs

G
Always remember the pact that we made

G
Too young to die, but old is the grave


CHORUS....

solo

|--7-5--5---7-5--5---7-5----|-------------7-------------|
|-----7---------7--------7--|--7-5--5---5----5---7-5----|
|---------------------------|-----7---------7--------7--|
|---------------------------|---------------------------|
|---------------------------|---------------------------|
|---------------------------|---------------------------|



|---------------------------|---------------------------|
|--5-3--3---5-3--5---5-3----|--5-3--3---5-3--5---5-3----|
|-----5---------5--------5--|-----5---------5--------5--|
|---------------------------|---------------------------|
|---------------------------|---------------------------|
|---------------------------|---------------------------|


 I am gonna show .....
       I am gonna show .....


|--14---------14------------|---14----------14----------|
|----15---------15----------|-----12----------12--------|
|------14--------14---------|-------14----------14------|
|---------------------------|---------------------------|
|---------------------------|---------------------------|
|---------------------------|---------------------------|

 I am gonna show .....
        I am gonna show .....
   

|--12---------12------------|---12----------12----------|
|----10---------10----------|-----10----------10--------|
|------12--------12---------|-------12----------12------|
|---------------------------|---------------------------|
|---------------------------|---------------------------|
|---------------------------|---------------------------|

Em        A        D 
Eighteen  Balding  Star

-----------------------------------------------------------------------------
My first tab and it's not complete yet, there are some notes still missing. But for the
moment this is the closest one.
Comments