Kings Of Leon - Bucket Chords & Tabs

 

Bucket Chords & Tabs

Kings Of Leon Chords & Tabs

Version: 2 Type: Bass Tab 0 ratings
1 star 2 stars 3 stars 4 stars 5 stars
comments

Bucket Bass Tab

Kings Of Leon
The Bucket


this is my first tab but i dont even play bass, i play guitar. the other tab was not
so good so i used it as a starting point and came up with this and its not that hard
to play. you cant really hear the bass in the song but this fits.

~~~PLEASE RATE!!!~~~

no bass in intro

verse
[ Tab from: http://www.guitartabs.cc/tabs/k/kings_of_leon/bucket_btab_ver_2.html ]
g|----------------------------------|----------------------------------| -
d|----------------------------------|----------------------------------|  |
a|--5-5-5-5-5-5-5-5-5-5-5-5-5-5-5-5-|----------------------------------|  |
e|----------------------------------|-5-5-5-5-5-5-5-5-5-5-5-5-5-5-5-5--|  |
                                                                          | x2
g|----------------------------------|----------------------------------|  |
d|----------------------------------|----------------------------------|  |
a|----------------------------------|----------------------------------|  |
e|--3-3-3-3-3-3-3-3-3-3-3-3-3-3-3-3-|-3-3-3-3-3-3-3-3-3-3-3-3-3-3-3-3--| -


chorus

g|----------------------------------|----------------------------------| -
d|----------------------------------|----------------------------------|  |
a|----------------------------------|----------------------------------|  |
e|--3-------------------------------|-5--------------------------------|  |
                                                                          | x2
g|----------------------------------|----------------------------------|  |
d|----------------------------------|----------------------------------|  |
a|--5-5-5-5-5-5-5-5-5-5-5-5-5-5-5-5-|-5-5-5-5-5-5-5-5-5-5-5-5-5-5-5-5--|  |
e|----------------------------------|----------------------------------| -


repeat verse and chorus

play the verse in the solo and then once again in that bit after it

play the first line of the chorus then end on

a|--5---


Sam
Comments