Kings Of Leon - Black Thumbnail Chords & Tabs

 

Black Thumbnail Chords & Tabs

Kings Of Leon Chords & Tabs

Version: 1 Type: Tab 0 ratings
1 star 2 stars 3 stars 4 stars 5 stars
comments

Black Thumbnail Tab

   
This is the intro i saw them play live and most of the song me thinks

    D   D     D  U  D  U     D   D     D  U  D  U
e|--12--12----12-12-12-12----12--12----12-12-12-12----------|
B|--12--12----12-12-12-12----12--12----12-12-12-12----------|
G|--13--13----13-13-13-13----13--13----13-13-13-13----------|
D|--14--14----14-14-14-14----14--14----14-14-14-14----------|
A|--14--14----14-14-14-14----14--14----14-14-14-14----------|
E|--12--12----12-12-12-12----12--12----12-12-12-12----------|
[ Tab from: http://www.guitartabs.cc/tabs/k/kings_of_leon/black_thumbnail_tab.html ]
Then for the chorus when it goes down for a bit:

    D   D     D  U  D  U     D   D     D  U  D  U
e|--10--10----10-10-10-10----10--10----10-10-10-10----------|
B|--10--10----10-10-10-10----10--10----10-10-10-10----------|
G|--11--11----11-11-11-11----11--11----11-11-11-11----------|
D|--12--12----12-12-12-12----12--12----12-12-12-12----------|
A|--12--12----12-12-12-12----12--12----12-12-12-12----------|
E|--10--10----10-10-10-10----10--10----10-10-10-10----------|

A. Taylor


Comments