Kings Of Leon - Birthday Chords & Tabs

 

Birthday Chords & Tabs

Kings Of Leon Chords & Tabs

Version: 1 Type: Bass Tab 0 ratings
1 star 2 stars 3 stars 4 stars 5 stars
comments

Birthday Bass Tab

   
---------------------------------------------------------------------------
			     BIRTHDAY - Kings of Leon
---------------------------------------------------------------------------

Tabbed By : Andrew Saunders
e-mail: mail@andrewsaunders.com

Tuning: Standard (E A D G)
   
   0:16
G|-----------------------------------------------------------------------|
D|-----------------------------------------------------------------------|
A|----5-7-----5-7---99-7-5---99-7-5------5-7-----5-7---99-7-5---99-7-5---| X1
E|--7------77-------------------------77------77-------------------------|

G|-----------------------------------------------------------------------|
D|-----------------------------------------------------------------------|
A|----5-7-----5-7---99-7-5---99-7-5------5-7-----5-7---99-7-5---99-7-5---| X2
E|-77------77-------------------------77------77-------------------------|
   
  1:05
G|-----------------------------------------------------------------------|
D|-----------------------------------------------------------------------|
A|-----------------------------------------------------------------------|
E|-3333-3333-3333-3333-7777-7777-7777-7777-------------------------------|

G|-----------------------------------------------------------------------|
D|-----------------------------------------------------------------------|
A|-------------------------------9-7-5-----------------------------------|
E|-3333-3333-3333-3333-7777-7777-----------------------------------------|

  1:21
G|-----------------------------------------------------------------------|
D|-----------------------------7-5---------------------------------------|
A|-----57-----5-7---99-7-5---99------------------------------------------| X1
E|--7------77------------------------------------------------------------|

G|-----------------------------------------------------------------------|
D|-----------------------------------------------------------------------|
A|----5-7-----5-7---99-7-5---99-7-5------5-7------5-7---99-7-5---99-7-5--| X2
E|-77------77-------------------------77------77-------------------------|
[ Tab from: http://www.guitartabs.cc/tabs/k/kings_of_leon/birthday_btab.html ]
  2:01
G|-----------------------------------------------------------------------|
D|-----------------------------------------------------------------------|
A|-----------------------------------------------------------------------|
E|-3333-3333-3333-3333-7777-7777-7777-7777-------------------------------|

G|-----------------------------------------------------------------------|
D|-----------------------------------------------------------------------|
A|-------------------------------9-7-5-----------------------------------|
E|-3333-3333-3333-3333-7777-7777-----------------------------------------|

  2:17
G|-----------------------------------------------------------------------|
D|--------------------7-5---------------------------------7-5------------|
A|----5-7-----5-7---99-----99-7-5---------5-7-----5-7---99-----99-7-5----| 
E|--7------77-------------------------77-------77------------------------|

  2:33
G|-----------------------------------------------------------------------|
D|-----------------------------------------------------------------------|
A|-----------------------------------------------------------------------|
E|--3----7---------------------------------------------------------------|

  2:41
G|-----------------------------------------------------------------------|
D|-----------------------------------------------------------------------|
A|-----------------------------------------------------------------------| X2
E|-3333-3333-3333-3333-7777-7777-7777-7777-------------------------------|

G|-------------------------------------9999-9999-------------------------|
D|-12121212-12121212-12121212-12121212-----------------------------------|
A|------------------------------------------------9-7-5------------------|
E|-----------------------------------------------------------------------|

  3:06
G|-----------------------------------------------------------------------|
D|---------------------7-5-----------------------------------------------|
A|---5-7------5-7---99---------------------------------------------------| 
E|-7------77-------------------------------------------------------------|


===========================================================================
Comments