Kings Of Leon - Beneath The Surface Chords & Tabs

 

Beneath The Surface Chords & Tabs

Kings Of Leon Chords & Tabs

Version: 1 Type: Bass Tab 0 ratings
1 star 2 stars 3 stars 4 stars 5 stars
comments

Beneath The Surface Bass Tab

-------------------------------------------------------------------------           
Beneath The Surface - KINGS OF LEON
-------------------------------------------------------------------------

Tabbed By : Spencer
e-mail: spencer2425@gmail.com

Tuning:

    intro + verse
G|------------------------------|
D|------------------------------|
A|-----------13/-14/------------|
E|---14/-14/--------------------|

[ Tab from: http://www.guitartabs.cc/tabs/k/kings_of_leon/beneath_the_surface_btab.html ]
    chorus
G|------------------------------------------------------------------------|
D|----------------14---------------------14-------------------------------|
A|----------14h16----16------------14h16----16----131313131313141414141414|
E|-14141414---------------14141414----------------------------------------|


    bridge
G|----------------------------------------------------------|
D|----------------------------------------------------------|
A|-----------13(X6)-14(X6)-----OR-----------1(X6)-2(X6)-----|
E|---14(X12)-------------------------2(X12)-----------------|
Comments