Kings Of Leon - Arizona Chords & Tabs

 

Arizona Chords & Tabs

Kings Of Leon Chords & Tabs

Version: 4 Type: Bass Tab 0 ratings
1 star 2 stars 3 stars 4 stars 5 stars
comments

Arizona Bass Tab

----------------------------------------------------------------------------
			     Arizona - Kings Of Leon
---------------------------------------------------------------------------

Tabbed By : BlocPartyFreak
e-mail: madfender@gmail.com

Tuning:Standard - EADG

Thanks to cat_mags.

No disrespect, but every single bass tab on here is wrong. I slaved away for a 
very long time on this song, Youtube videos, other tabs, etc., until I came up 
with it myself.  Here is the way J-man plays it:

(By the way, that repetitive note intro that everyone says they hear, it's Matt's guitar).

Bass comes in at 00:25 - 00:50
Intro/Verse                         on 8th
G|----9---8---6------------|    G|----------|
D|----------------9-7-6----| x8 D|-9-7-6----|
A|--7---7---7---7----------|    A|-------7~-|
E|-------------------------|    E|----------|

Verse
1:03 - 1:15
G|----9---8---6------------|    
D|----------------9-7-6----| x4
A|--7---7---7---7----------|    
E|-------------------------|

Chorus
1:15 - 1:28                         on 8th
G|----9---8---6------------|    G|----------|
D|----------------9-7-6----| x4 D|-9-7-6----|
A|--7---7---7---7----------|    A|-------7~-|
E|-------------------------|    E|----------|

Verse
1:40 - 1:53
G|----9---8---6------------|    
D|----------------9-7-6----| x4
A|--7---7---7---7----------|    
E|-------------------------|

Chorus
1:53 - 2:17                            
G|----9---8---6------------|   
D|----------------9-7-6----| x8
A|--7---7---7---7----------|    
E|-------------------------|


(Shake hands...)
[ Tab from: http://www.guitartabs.cc/tabs/k/kings_of_leon/arizona_btab_ver_4.html ]
Bridge
2:17 - 2:30
G|-----------6h4h6---------|
D|-------6-----------------| x4
A|--7--4---4---------------|
E|-------------------------|

Verse
2:30 - 2:55
G|----9---8---6------------|
D|----------------9-7-6----| x8
A|--7---7---7---7----------|
E|-------------------------|

Chorus
2:55 - 3:20
G|----9---8---6------------|
D|----------------9-7-6----| x8
A|--7---7---7---7----------|
E|-------------------------|

(Guitar Solo)
3:20 - 3:45

G|---------13-14-13----------------13-14-13------|
D|---14-16----------16-14----14-16----------16-14| ---|  
A|-----------------------------------------------|    |
E|-12---------------------12---------------------|    |
                                                      | x2
G|--------13-------------------13-----------|         |
D|---14-16---------------14-16--------------|         |
A|-----------14-14-14-------------14-14-14--| --------|
E|-12-----------------12--------------------|

Verse
3:45 - 4:04
G|----9---8---6------------|
D|----------------9-7-6----| x6
A|--7---7---7---7----------|
E|-------------------------|

Little Alteration(Love this)
4:04 - 4:11
G|-----------13--------|
D|---14-13-14--14-13-14| x4
A|---------------------|
E|-12------------------|

Fade out
4:11 - 4:29
G|----9---8---6------------|
D|----------------9-7-6----| x6
A|--7---7---7---7----------|
E|-------------------------|

This softly when fading to end song:
4:29 - End
G|-----------13--------|
D|---14-13-14--14-13-14| 
A|---------------------|
E|-12------------------|

Thankyou, any comments or corrections, just ask.

BlocPartyFreak.
Comments